:: Guitar & Bass Tabs Make Home Page
A B C D E F G H I J K L M N O P Q R S T U V W X Y Z #

  for    

On TABSPACE
Info About This Tab
Artist: 88 Fingers Louie
Tab Type: Bass
Rate This Tab!
Song:100 Proof
Band:88 Fingers Louie
Album:Back on the Street

This tab is mainly tabbed by Chris (paz420@html.com) i just changed
something in the intro and in the bridge...now it's pretty perfect... 
Alberto zorrico3@yahoo.com 
                              
intro
G:-7-7--7-7-7-10--10-10--10-10-10--10-10--10-10-10-12--12-12-9--9-9--
D:-0-0--0-0-0-0---0--0---0--0--0---8--8---8--8--8--10--10-10-7--7-7--
A:------------------------------------------------------------------- X 4
E:-------------------------------------------------------------------

verse
G:--------------------------------------------------------
D:--------------------------------------------------------
A:-5-5--5-5-5\8--8-8--8-8-8--8-8--8-8-8-10--10-10-7--7-7-- X 4
E:--------------------------------------------------------

chorus
G:---------------------------------------------------------------------------
D:-15-15--15-15-15-15--15-15--15-15-15--14-14--14-14-14-14--14-14--14-14-14--
A:---------------------------------------------------------------------------
E:---------------------------------------------------------------------------
                       
G:--------------------------------------14-14--14-14-14-12--12-12-10--10-10--
D:-15-15--15-15-15-15--15-15--15-15-15---------------------------------------
A:---------------------------------------------------------------------------
E:---------------------------------------------------------------------------

G:---------------------------------------------------------------------------
D:-14-14--14-14-14-14--14-14--14-14-14--12-12--12-12-12-12--12-12--12-12-12--
A:---------------------------------------------------------------------------
E:---------------------------------------------------------------------------

G:--------------------------------------10-10--10-10-10-9--9-9--9-9-9--
D:-10-10--10-10-10-10--10-10--10-10-10---------------------------------
A:---------------------------------------------------------------------
E:---------------------------------------------------------------------

intro X 2
verse X 4
chorus

bridge
G:-----------------------------------------------------
D:-----------------------------------------------------
A:-5-5--5-5-5-5--5-5--5-5-5--5-5--5-5-5-5--5-5--5-5-5--
E:-----------------------------------------------------
                                                       
G:-----------------------------------------------------
D:-----------------------------------------------------
A:-----------------------------------------------------
E:-1-1--1-1-1-1--1-1--1-1-1--1-1--1-1-1-1--1-1--1-1-1--

G:-----------------------------------------------------
D:-----------------------------------------------------
A:-3-3--3-3-3-3--3-3--3-3-3--3-3--3-3-3-3--3-3--3-3-3--
E:-----------------------------------------------------

G:-----------------------------------------------------
D:-----------------------------------------------------
A:-1-1--1-1-1-1--1-1--1-1-1--0-0--0-0-0-3--3-3--3-3-3--
E:-----------------------------------------------------

solo
G------------------------------------------------------------
D---------------------------------------3-2------------------
A-5-----3-4-5-44-3-2-1--5-----3-4-5-44-3----88-888-788-8888--
E---3-5-------------------3-5--------------------------------

G-----------------------------1-3-333---------------1-3-333------
D-5-4-2--0-2--------------1-3---------1h3-0-----1-3---------1h3--
A------------4-3-2-0--1-3-------------------1-3------------------
E----------------------------------------------------------------

G---------------------------44-3------
D-7-6-4-2-77-6-4-2--6-5-3-1------4-3--
A-------------------------------------
E-------------------------------------

outro(same as intro) 'til the end

end on
G:-7--
D:-0--
A:----
E:----


Share "100 Proof" by 88 Fingers Louie


TOP 10 TABS

FRESH NEW TABS

ALL ARTISTS
artist wiki

mp3bear.com
song lyrics / contact us / privacy policy / tabspace toolbar
Copyright 2004 - 2014 TabSpace.com - All Rights Reserved.
song: 100 proof bass tabs by 88 fingers louie

0.04