:: Guitar & Bass Tabs Make Home Page
A B C D E F G H I J K L M N O P Q R S T U V W X Y Z #

  for    

On TABSPACE
Info About This Tab
Artist: Tokio Hotel
Tab Type: Bass
Difficulty: novice
Rate This Tab!
-------------------------------------------------------------------------------
			     1000 Meere - Tokio Hotel
-------------------------------------------------------------------------------

Tabbed By : Cynthia
e-mail: Mytokioromancee@hotmail.com

Tuning: Standard

First 1000 meere Bass tab!
Yeah, I also play Bass hehe. This song is easy and the Bridge sounds incredible! ( Send 
videos of you playing this song :D). I know this is 100% correct because I have 
close-up videos of Georg playing it.


Verse:

G|-----|-----------------|-----------------|-----------------|-----------------|
D|-----|-----------------|-----------------|-0-0-0-0-0-0-0-0-|-----------------|
A|-----|-0-0-0-0-0-0-0-0-|-----------------|-----------------|-----------------|
E|----0|-----------------|-1-1-1-1-1-1-1-1-|-----------------|-3-3-3-3-3-3-3-3-|

G|-----------------|-----------------|-----------------|-----------------|
D|-----------------|-----------------|-0-0-0-0-0-0-0-0-|-----------------|
A|-0-0-0-0-0-0-0-0-|-----------------|-----------------|-----------------|
E|-----------------|-1-1-1-1-1-1-1-1-|-----------------|-3-3-3-3-3-3-3-3-|

Pre-Chorus:

G|----------|-----------------|
D|----------|-----------------|
A|--GUITAR--|-----------------|
E|----------|-1-1-1-1-1-1-1-1-|


Chorus:

G|-----------------|-----------------|-----------------|-----------------|
D|-----------------|-----------------|-----------------|-----------------|
A|-----------------|-3-3-3-3-3-3-3-3-|-----------------|-0-0-0-0-0-0-0-0-|
E|-1-1-1-1-1-1-1-1-|-----------------|-3-3-3-3-3-3-3-3-|-----------------|

G|-----------------|------------------------------------------|-----------------|
D|-----------------|------------------------------------------|-----------------|
A|-----------------|-3-3-3-3-3-3-3-3/-10-10-10-10-10-10-10-10-|-0-0-0-0-0-0-0-0-|
E|-1-1-1-1-1-1-1-1-|------------------------------------------|-----------------|

G|-----------------|-----------------|-----------------|-----------------|
D|-----------------|-----------------|-----------------|-----------------|
A|-----------------|-3-3-3-3-3-3-3-3-|-----------------|-0-0-0-0-0-0-0-0-|
E|-1-1-1-1-1-1-1-1-|-----------------|-3-3-3-3-3-3-3-3-|-----------------|

G|-----------------|------------------------------------------|-----------------|
D|-----------------|------------------------------------------|-----------------|
A|-----------------|-3-3-3-3-3-3-3-3/-10-10-10-10-10-10-10-10-|-0-0-0-0-0-0-0-0-|
E|-1-1-1-1-1-1-1-1-|------------------------------------------|-----------------|

G|----------|
D|----------|
A|-0--(0)/12|
E|----------|

Verse:

G|-----------------|-----------------|-----------------|-----------------|
D|-----------------|-----------------|-----------------|-----------------|
A|-3-3-3-3-3-3-3-3-|-----------------|-0-0-0-0-0-0-0-0-|-----------------|
E|-----------------|-3-3-3-3-3-3-3-3-|-----------------|-1-1-1-1-1-1-1-1-|

G|-----------------|-----------------|-----------------|-----------------|
D|-----------------|-----------------|-----------------|-----------------|
A|-3-3-3-3-3-3-3-3-|-----------------|-0-0-0-0-0-0-0-0-|-----------------|
E|-----------------|-3-3-3-3-3-3-3-3-|-----------------|-1-1-1-1-1-1-1-1-|

G|-----------------|-----------------|
D|-----------------|-----------------|
A|-3-3-3-3-3-3-3-3-|-----------------|
E|-----------------|-3-3-3-3-3-3-3-3-|

Pre-Chorus:

G|12-14-12-14-12-14-----------------------|
D|----------|-------------------14-12-----|
A|--GUITAR--|-------------------------15--|
A|----------|-----------------------------|

Chorus:

G|-----------------|-----------------|-----------------|-----------------|
D|-----------------|-----------------|-----------------|-----------------|
A|-----------------|-3-3-3-3-3-3-3-3-|-----------------|-0-0-0-0-0-0-0-0-|
E|-1-1-1-1-1-1-1-1-|-----------------|-3-3-3-3-3-3-3-3-|-----------------|

G|-----------------|------------------------------------------|-----------------|
D|-----------------|------------------------------------------|-----------------|
A|-----------------|-3-3-3-3-3-3-3-3/-10-10-10-10-10-10-10-10-|-0-0-0-0-0-0-0-0-|
E|-1-1-1-1-1-1-1-1-|------------------------------------------|-----------------|

G|-----------------|-----------------|-----------------|-----------------|
D|-----------------|-----------------|-----------------|-----------------|
A|-----------------|-3-3-3-3-3-3-3-3-|-----------------|-0-0-0-0-0-0-0-0-|
E|-1-1-1-1-1-1-1-1-|-----------------|-3-3-3-3-3-3-3-3-|-----------------|

G|-----------------|------------------------------------------|
D|-----------------|------------------------------------------|
A|-----------------|-3-3-3-3-3-3-3-3/-10-10-10-10-10-10-10-10-|
E|-1-1-1-1-1-1-1-1-|------------------------------------------|

Bridge:

G|-----------------|-----------------|-----------------------------------|
D|-----------------|-----------------|-0-0-0-0-0-0-0-0/5-5---------------|
A|-----------------|-3-3-3-3-3-3-3-3-|---------------------8-7-5---------|
E|-5-5-5-5-5-5-5-5-|-----------------|---------------------------8-2-----|

G|-----------------|-----------------|-----------------|------------------|
D|-----------------|-----------------|-----------------|------------------|
A|-0-0-0-0-0-0-0-0-|-----------------|-3-3-3-3-3-3-3-3-|------------------|
E|-----------------|-1-1-1-1-1-1-1-1-|-----------------|-3-3-3-15-17--15--|


G|----------------|----------------|----------------|----------------|
D|----------------|----------------|----------------|----------------|
A|----------------|----------------|----------------|----------------|
E|-5-5-5-5-5-5----|-5-5-5-5-5-5----|-0-0-0-0-0-0----|-1-1-1-1-1-1----|

G|----------------|----------------|----------------|-12-14-12-14-12-14----------|
D|----------------|----------------|----------------|-------------------14-12----|
A|----------------|----------------|----------------|-------------------------15-|
E|-5-5-5-5-5-5----|-5-5-5-5-5-5----|-0-0-0-0-0-0----|----------------------------|

G|-----------------|-----------------|-----------------|-----------------|
D|-----------------|-----------------|-----------------|-----------------|
A|-----------------|-----------------|-----------------|-----------------|   3x
A|-5-5-5-5-5-5-5-5-|-5-5-5-5-5-5-5-5-|-8-8-8-8-8-8-8-8-|-3-3-3-3-3-3-3-3-|

Chorus:

G|-----------------|-----------------|-----------------|-----------------|
A|-----------------|-----------------|-----------------|-----------------|
D|-----------------|-3-3-3-3-3-3-3-3-|-----------------|-0-0-0-0-0-0-0-0-|
E|-1-1-1-1-1-1-1-1-|-----------------|-3-3-3-3-3-3-3-3-|-----------------|

G|-----------------|------------------------------------------|-----------------|
D|-----------------|------------------------------------------|-----------------|
A|-----------------|-3-3-3-3-3-3-3-3/-10-10-10-10-10-10-10-10-|-0-0-0-0-0-0-0-0-|
E|-1-1-1-1-1-1-1-1-|------------------------------------------|-----------------|

G|-----------------|-----------------|-----------------|-----------------|
D|-----------------|-----------------|-----------------|-----------------|
A|-----------------|-3-3-3-3-3-3-3-3-|-----------------|-0-0-0-0-0-0-0-0-|
E|-1-1-1-1-1-1-1-1-|-----------------|-3-3-3-3-3-3-3-3-|-----------------|

G|-----------------|------------------------------------------|
D|-----------------|------------------------------------------|
A|-----------------|-3-3-3-3-3-3-3-3/-10-10-10-10-10-10-10-10-|
E|-1-1-1-1-1-1-1-1-|------------------------------------------|

Final Chorus:

G|---------------------|---------------------|---------------------|---------------------|
D|---------------------|---------------------|---------------------|---------------------|
A|---------------------|---------------------|-3-3-3-3/15-15-15-15-|---------------------|   2x
E|-5-5-5-5/22-22-22-22-|-5-5-5-5/22-22-22-22-|---------------------|-3-3-3-3/19-19-19-19-|

G|------------|
D|------------|
A|------------|
E|--1~--------|

Have fun! :D

| /  slide up
| \  slide down
| h  hammer-on
| p  pull-off
| ~  vibrato
| +  harmonic
| x  Mute note


Share "1000 Meere" by Tokio Hotel


TOP 10 TABS

FRESH NEW TABS

ALL ARTISTS
artist wiki

mp3bear.com
song lyrics / contact us / privacy policy / tabspace toolbar
Copyright 2004 - 2014 TabSpace.com - All Rights Reserved.
song: 1000 meere bass tabs by tokio hotel

0.007