:: Guitar & Bass Tabs Make Home Page
A B C D E F G H I J K L M N O P Q R S T U V W X Y Z #

  for    

On TABSPACE
Info About This Tab
Artist: Panda
Tab Type: Guitar
Difficulty: novice
Rate This Tab!
Tabbed by: marioq
Email: lonely_guy91@hotmail.com

en los versos se usan los mismos acordes solo oigan la cancion bien para guiarse y para 
cuande lo meten los palm mutes
Tuning: standard
intro:
guitarra 1
e|-------14-13---------------------------------------------------------------------|
B|-----14------14------------------------------------------------------------------|
G|---13----------------------------------------------------------------------------|
D|/11------------------------------------------------------------------------------|
A|---------------------------------------------------------------------------------|
E|---------------------------------------------------------------------------------|
guitarra 2
e|--------------------------------------------------------------------------------|
B|--------------------------------------------------------------------------------|
G|-6*-/3--------------------------------------------------------------------------|
D|-6*-/3--------------------------------------------------------------------------|
A|-4*-/1--44-4-44-4-44-4-88-8-88-8-88-8-88-8-66-6-66-6-66-6-----------------------|
E|--------22-2-22-2-22-2-66-6-66-6-66-6-66-6-44-4-44-4-44-4-----------------------|
          ..   ..   ..   ..   ..   ..   ..   ..   ..   ..
continuado:
e|--------------------------------------6v-4----------6/9-8-9-11p9p8------------------|
B|----4----4-6b7r6-4------4----4-6b7r6-4----7-6b7-6-4---------------11p9p8------------|
G|/6v---6-6----------6-3-6-66-6-------------------------------------------10p8--------|
D|----------------------------------------------------------------------------10p8p6--|
A|------------------------------------------------------------------------------------|
E|------------------------------------------------------------------------------------|
guitarra 2 sigue los mismos acordes
verso:
e|-----------------------------------------------------------------------------|
B|-----------------------------------------------------------------------------|
G|6----------------------------------------------------------------------------|
D|6----8----6---4--------------------------------------------------------------|
A|4----8----6---4--------------------------------------------------------------|
E|-----6----4---2--------------------------------------------------------------|

e|---------------------------------------------------------------------------|
B|---------------------------------------------------------------------------|
G|---------------------------------------------------------------------------|
D|8888888-6666666-444444-----------------------------------------------------|
A|8888888-6666666-444444-----------------------------------------------------|
E|6666666-4444444-222222-----------------------------------------------------|
  ....... .......
me canse de ti
coro:
e|-------------------------------------------------------------------------------------|
B|-------------------------------------------------------------------------------------|
G|-666-333-----------------------------------------------------------------------------|
D|-666-333-----------------------------------------------------444---------------------|
A|-444-111--44-4-44-4-44-4-88-8-88-8-88-8-88-8-66-6-66-6-66-6--444---------------------|
E|----------22-2-22-2-22-2-66-6-66-6-66-6-66-6-44-4-44-4-44-4--222---------------------|
guitarra 2
e|---------------------------------------------------------------------------|
B|---------------------------------------------------------------------------|
G|10-11-10-10-11-15-13-11-10-------------------------------------------------|
D|x--x--x--x--x--x--x--x--x--------------------------------------------------|
A|8--9--8--8--9--13-11-9--8--------------------------------------------------|
E|---------------------------------------------------------------------------|
verso (x1)
coro(x1)
break:
e|--------------------------------------6v-4----------6/9-8-6-5b6-4----------|
B|----4----4-6b7r6-4------4----4-6b7r6-4----7-6b7-6-4---------------7p6-4----|
G|/6v---6-6----------6-3-6-66-6------------------------------------------6---|
D|---------------------------------------------------------------------------|
A|---------------------------------------------------------------------------|
E|---------------------------------------------------------------------------|

e|---------------------------------------------------------------------------|
B|----4----4-6b7r6-4------4----4-6b7r6-4-------------------------------------|
G|/6v---6-6----------6-3-6-66-6---------6------------------------------------|
D|---------------------------------------------------------------------------|
A|---------------------------------------------------------------------------|
E|---------------------------------------------------------------------------|
outro:
e|44444-1111-22222--11111--44444--------------------------------------------------|
B|4444--2222-22222--22222--44444--------------------------------------------------|
G|6666--3333-33333--33333--77777--------------------------------------------------|
D|6666--3333-44444--33333--66666--------------------------------------------------|
A|4444--1111-44444--11111--66666--------------------------------------------------|
E|-----------22222---------44444--------------------------------------------------|


Share "31" by Panda


TOP 10 TABS

FRESH NEW TABS

ALL ARTISTS
artist wiki

mp3bear.com
song lyrics / contact us / privacy policy / tabspace toolbar
Copyright 2004 - 2014 TabSpace.com - All Rights Reserved.
song: 31 guitar tabs by panda

0.012