:: Guitar & Bass Tabs Make Home Page
A B C D E F G H I J K L M N O P Q R S T U V W X Y Z #

  for    

On TABSPACE
Info About This Tab
Artist: Paramita
Tab Type: Guitar
Difficulty: intermediate
Rate This Tab!
Song: A Dreamer's Lullabye (Plus Intro sa Acoustic version!)
Artist: Paramita
Tabbed By: Pretselman

++++++++++++++++++++++++++++++++++++++++++++++++++
Add nio ako sa friendster: retselmanalo@yahoo.com+
++++++++++++++++++++++++++++++++++++++++++++++++++

Tuning: EADGBE/standard

Intro: 2X
(Guitar 1) +++Chords+++

	A2	F#/A2	  A/D	B/D
e |-----0-------0---------0-----0-------|
b |-----0-------0---------2-----2-------|
g |-----2-------2---------2-----2-------|
d |-----2-------2---------0-----0-------|	
a |-----0-------0---------x-----2-------|
e |-----x-------2---------x-----x-------|

(Guitar 2)

e |----------------------------------------------------------------|
b |----------------------------------------------------------------|
g |---------9----------9----9\11-9---------------------------------|
d |----9h11---11--9h11---11---------11p9-7---7\9--11p9-7---7\9-----|  2X
a |----------------------------------------9-------------9---------|
e |----------------------------------------------------------------|

A/D
Close your eyes,
F#/A2
come fly away with me
A/D
i'll take you to places that you've
B/D		       A/D
never seen, never been before..
         F#/A2
i know why,
	       A/D
all the things you've been through
			B/D
and all the things that hurt you 
are eating you alive..

++A2-F#/A2-A/D-B/D+++

A/D
Right here,
       F#/A2
with you
   A/D
is where i wanna be
   B/D
is where i oughtta be
		A/D
wipe your tears away
	  F#/A2
coz right now..
A/D
time is on our side
B/D
time is on our side..HihahiYay!

**Chords sa "Time is on our side" 

	A/D	B/D	F#/D       A
e |------0------0----------0-------0---------|
b |------2------2----------2-------2---------|
g |------2------2----------2-------2---------|
d |------0------0----------0-------2---------|	 4X
a |------x------2----------0-------0---------|
e |------x------x----------2-------X---------|


	   F#/D     A
e |---------0-------0---------|
b |---------2-------2---------|
g |---------2-------2---------|
d |---------0-------2---------|	 7X
a |---------0-------0---------|
e |---------2-------X---------|
come live another day..
close your eyes and i'll sing you a lullabye
nothing to fear coz i'm right here by your side..

A/D
close your eyes,
F#/A2
come fly away with me
A/D
i'll take you to places that you've never seen
B/D
never been before...

But Wait!!! ders more!!!!
++++++++++++++++++++++++++++++++++++++++++++++++++
Add nio ako sa friendster: retselmanalo@yahoo.com+
++++++++++++++++++++++++++++++++++++++++++++++++++
Intro sa Acoustic Version
(hinati ko n s apat para madali niong maintindihan)enjoy!


e |-------0------0---|--------0----2-0---|-------------0---|-----------0---|
b |--0h2----2------2-|----0h2---2------0-|---2p0----0----0-|--2p0----0---0-|
g |------------------|-------------------|--------2--------|-------2-------|
d |------------------|-------------------|---0-------------|---------------|
a |--0--------0------|-------------------|-----------------|--2------------|
e |------------------|-0--2--------------|-----------------|---------------|


| /  slide up
| \  slide down
| h  hammer-on
| p  pull-off



Share "A Dreamers Lullabye" by Paramita


TOP 10 TABS

FRESH NEW TABS

ALL ARTISTS
artist wiki

mp3bear.com
song lyrics / contact us / privacy policy / tabspace toolbar
Copyright 2004 - 2014 TabSpace.com - All Rights Reserved.
song: a dreamers lullabye guitar tabs by paramita

0.014