:: Guitar & Bass Tabs Make Home Page
A B C D E F G H I J K L M N O P Q R S T U V W X Y Z #

  for    

On TABSPACE
Info About This Tab
Artist: Idlewild
Tab Type: Guitar
Difficulty: novice
Rate This Tab!
iDLEWiLD
A Film For The Future

Guitar tuned down half a step (Eb, Ab, Db, Gb, Bb, Eb)

Intro Riff
Eb---------------------|---------------|
Bb---------------------|------------0--|
Gb------10-----10---10-|-----10-----0--|
Db--9-9-9--9-9-9--9-9--|-9-9-9--9---0--|
Ab--9-9----9-9----9----|-9-9----9---0--|
Eb--7-7----7-7----7----|-7-7----7------|
   x 3                   x 1

Verse Riff
Eb---------------------|
Bb---------------------|
Gb------10-----10---10-|
Db--9-9-9--9-9-9--9-9--|
Ab--9-9----9-9----9----|
Eb--7-7----7-7----7----| Play x 12

Chorus Riff A
Eb-----------------------------------|
Bb-----------------------------------|
Gb-----------------------------------|
Db--5-5-5-5-5-5-5-5-4-4-4-4-3-3-3-3--|
Ab--5-5-5-5-5-5-5-5-4-4-4-4-3-3-3-3--|
Eb--3-3-3-3-3-3-3-3-2-2-2-2-1-1-1-1--| Play x 1

Then play Verse Riff x 2
Then play Chorus Riff A x 1
Then play Verse Riff x 14
Then play Chorus Riff A x 1
Then play Verse Riff x 2

Chorus Riff B 
Eb-----------------------------------:
Bb-----------------------------------:
Gb-----------------------------------:
Db--5-5-5-5-5-5-5-5-4-4-4-4-3-3-3-3--:
Ab--5-5-5-5-5-5-5-5-4-4-4-4-3-3-3-3--:
Eb--3-3-3-3-3-3-3-3-2-2-2-2-1-1-1-1--:

:------------------------------------|
:------------------------------------|
:------------------------------------|
:---2-2-2-2-2-2-2-2-2-2-2-2-2-2-2-2--|
:---2-2-2-2-2-2-2-2-2-2-2-2-2-2-2-2--|
:---0-0-0-0-0-0-0-0-0-0-0-0-0-0-0-0--| 

Post-Chorus Riff
Eb---------------------------------------|
Bb---------------------------------------|
Gb---------------------------------------|
Db--11--11-11-11-11--11-11-11-11--11-11--|
Ab--11--11-11-11-11--11-11-11-11--11-11--|
Eb--9---0--0--0--9---0--0--0--9---0--0---| Play x 8

(Quiet bit, guitars untabbable)

Break Riff (Guitar 1)
Eb-------------------------14-14-14----------------|-------------------------14~--|
Bb-16-16-16-16-16-16-16-16----------15-15-15-15-15-|-16-16-16-16-16-16-16-16
Gb-------------------------------------------------|------------------------------|

Break Riff (Guitar 2)
Bb-------------------------------------------------|------------------------------|
Gb-12-12-12-12-12-12-12-12----------11-11-11-11-11-|-12-12-12-12-12-12-12-12------|
Db-------------------------13-13-13----------------|-------------------------13~--|

Then play Verse Riff x 12
Then play Chorus Riff A x 1
Then play Verse Riff x 2
Then play Chorus Riff A x 1
Then play Verse Riff x 2
Then play Chorus Riff A x 1
Then play Verse Riff x 2
Then play Chorus Riff B x 1
Then play Post-Chorus Riff x 8
End on:
Db--11~--|
Ab--11~--|
Eb--9-~--|


Share "A Film For The Future" by Idlewild


TOP 10 TABS

FRESH NEW TABS

ALL ARTISTS
artist wiki

mp3bear.com
song lyrics / contact us / privacy policy / tabspace toolbar
Copyright 2004 - 2014 TabSpace.com - All Rights Reserved.
song: a film for the future guitar tabs by idlewild

0.024