:: Guitar & Bass Tabs Make Home Page
A B C D E F G H I J K L M N O P Q R S T U V W X Y Z #

  for    

On TABSPACE
Info About This Tab
Artist: Margot And The Nuclear So And Sos
Tab Type: Guitar
Rate This Tab!
STANDARD TUNING

should be close to spot on

e----3-3------3----3----------|
b--1-1-1------1----1-1--------|
g--2-2------------------------|      verse
d--2-2--------h3---2----------|
a------2bend-----3-3-2--------|
E-----------------------------|

e--1--------------------------|
b--3-1-1-1-1------------------|
g--2-2-2----------------------|
d----2-3-2--------------------|      chorus
a------3-3-2------------------|
E-----------------------------|


Share "A Light On A Hill" by Margot And The Nuclear So And Sos


TOP 10 TABS

FRESH NEW TABS

ALL ARTISTS
artist wiki

mp3bear.com
song lyrics / contact us / privacy policy / tabspace toolbar
Copyright 2004 - 2014 TabSpace.com - All Rights Reserved.
song: a light on a hill guitar tabs by margot and the nuclear so and sos

0.002