:: Guitar & Bass Tabs Make Home Page
A B C D E F G H I J K L M N O P Q R S T U V W X Y Z #

  for    

On TABSPACE
Info About This Tab
Artist: 30 Seconds To Mars
Tab Type: Guitar
Tuning: Drop D
Rate This Tab!
Intro/Main Riff 1

e|-------------------------------------|
B|-------------------------------------|
G|----7--7-7---------------------------|
D|----7--7-7-8--8-8/5--5-5--5--5-5-----|
A|----5--5-5-8--8-8/5--5-5--5--5-5-----|
E|-----------6--6-6/3--3-3--3--3-3-----|

Bridge w/verse
e|---------------------------------------------------------------------------|
B|---------------------------------------------------------------------------|
G|-7/5-5/3-3/2-3/2-0---0\2-2--0\2-2--7/5-5/3-3/2-3/2-0-3\5-3\5---------------|
D|-------------------3- ----3------------------------------------------------|
A|---------------------------------------------------------------------------|
E|---------------------------------------------------------------------------|

Chorus 2 gtr.2
e|-------------------------------------------------------------------------|
B|-6-5---6-5---6-5---6-5---6-5---6-5---6-5---6-5---------------------------|
G|-----5-----5-----5-----5-----5-----5-----5-----5-------------------------|
D|-------------------------------------------------------------------------|
A|-------------------------------------------------------------------------|
E|-------------------------------------------------------------------------|

Extra?...
e|-------------------|
B|----3-555-3-555----|          (<
			

Share "A Modern Myth" by 30 Seconds To Mars


TOP 10 TABS

FRESH NEW TABS

ALL ARTISTS
artist wiki

mp3bear.com
song lyrics / contact us / privacy policy / tabspace toolbar
Copyright 2004 - 2014 TabSpace.com - All Rights Reserved.
song: a modern myth guitar tabs by 30 seconds to mars

0.01