:: Guitar & Bass Tabs Make Home Page
A B C D E F G H I J K L M N O P Q R S T U V W X Y Z #

  for    

On TABSPACE
Info About This Tab
Artist: Daphne Loves Derby
Tab Type: Guitar
Rate This Tab!
I tabbed out the rainydawg radio version which is tuned half step down but the album version is in standard

Figure out strum pattern

Verse
e|--3-------------3--------------|
B|--3-----1-------3--------------|
G|-------------------------------|
D|--------2-------2------2-------|
A|--2-------------3------3-------|
E|--3----------------------------|X4
We flew over the cascades
We were forced to behave while we sat
In rows like children
I crossed some standard state lines
And finally found myself so far away from home
And even though New England intrigued us, thrilled us,
Our bones were cold as sticks and stones
We flew over the cascades
Just to find ourselves in storms we've never known

Chorus
e|--3-----2-------|
B|--3-----3-------|
G|--------2-------|
D|--2-------------|
A|----------------|
E|--x-------------|x2
The winds blew like a beast with wings
And yes, everything was blown so far away
And I fell down
I failed to cut its neck


Repeat Verse x4
Even after hours of waiting
There was no telling when the storm would find its way
The lands we tried to memorize
We're no longer wrapped in tepid shades of red
And through the night the storm held me down
And bit my neck and said it would be okay
I stared into the fury
And the beauty of its overwhelming strength


Repeat Chorus x2
The winds blew like a beast with wings
And yes, everything was blown so far away
And I fell down
I failed to cut its neck


Bridge
e|-----------------|
B|---------1-------|
G|-----------------|
D|--2------2-------|
A|--3--------------|
E|-----------------|x2
I saw a dim light
In the mouth of the beast
So I followed it in
It's too late to retreat
It swallowed me whole
And my flesh became meat
Oh I can't look back now
Because the beast is complete


End
e|--3--------------|
B|--3----1---------|
G|-----------------|
D|-------2-----2---|
A|--2----------3---|
E|--3--------------|
We flew over the cascades
We were forced to behave





Share "A Year On An Airplane" by Daphne Loves Derby


TOP 10 TABS

FRESH NEW TABS

ALL ARTISTS
artist wiki

mp3bear.com
song lyrics / contact us / privacy policy / tabspace toolbar
Copyright 2004 - 2014 TabSpace.com - All Rights Reserved.
song: a year on an airplane guitar tabs by daphne loves derby

0.012