:: Guitar & Bass Tabs Make Home Page
A B C D E F G H I J K L M N O P Q R S T U V W X Y Z #

  for    

On TABSPACE
Info About This Tab
Artist: Faber Drive
Tab Type: Guitar
Difficulty: intermediate
Rate This Tab!
Faber Drive
Again
Acoustic Guitar Solo
Standard Tuning

This is the first tab i have ever made. i did this by ear and i think it sounds just 
the actual solo itself. i hope u enjoy it!


E--------------------------------------------------|
B----------------8/10-8-6-8-10-10-8----------------|
G--9-7-9-9^--7----------------------9^--7----------|
D--------------------------------------------------|
A--------------------------------------------------|
E--------------------------------------------------|


E-------8--10-10-8--10-8---10-8---10-8---10-8-10-8-|
B---10------------10----10-----10-----10-----------|
G--7--7--7-----------------------------------------|
D--------------------------------------------------|
A--------------------------------------------------|
E--------------------------------------------------|


E--10-8--10-8---10-8---10-8------------------------|
B------10---10-----10-----10---8-6---------8/10----|
G----------------------------------9-9^--7---------|
D--------------------------------------------------|
A--------------------------------------------------|
E--------------------------------------------------|

E--------------------------------------------------|
B--------------------------------------------------|
G--10-9--9/10/9--9/10/9--7-------------------------|
D--------------------------------------------------|
A--------------------------------------------------|
E--------------------------------------------------|


Share "Again Solo" by Faber Drive


TOP 10 TABS

FRESH NEW TABS

ALL ARTISTS
artist wiki

mp3bear.com
song lyrics / contact us / privacy policy / tabspace toolbar
Copyright 2004 - 2014 TabSpace.com - All Rights Reserved.
song: again solo guitar tabs by faber drive

0.023