:: Guitar & Bass Tabs Make Home Page
A B C D E F G H I J K L M N O P Q R S T U V W X Y Z #

  for    

On TABSPACE
Info About This Tab
Artist: Panda
Tab Type: Guitar
Rate This Tab!
un saludo a todos 
esta rola casi no la han tableado y quise
sacarla, esta seria la cuarta o quinta tab
q subo, viva PXNDX!!!!!!!!! afinacion en Bemol
Fantoches jeje

No estoy seguro del intro pero suena mas o menos asi
R2 hace esto
|---------------------------------------|
|---------------------------------------|
|-/12-----------------------------------|
|-/10-/8-----8/10-----------------------|
|-/10-/8-----8/10-------10 X7 Palm mute-|
|-/8--/6-----6/8--------8---------------|

Verso1
R2
|-10----------------|--10/13-13-10|-------------10-----|-------------------|
|----13b15-3b15-(x3)|-------------|-13--13b15-3b15-(x3)|-------------------|
|-------------------|-------------|--------------------|--10/12-12-12-10---|
|-------------------|-------------|--------------------|----------------12-|
|-------------------|-------------|--------------------|-------------------|
|-------------------|-------------|--------------------|-------------------|

Verso 2

|--------------------------------|-------------------------------|
|--------10----------------------|-------10----------------------|
|-12b14v-----12p10-----12p10-(x2)|-12b14----12-10----12-10-------|
|------------------12v-----------|----------------12-------12-10-|
|--------------------------------|-------------------------------|
|--------------------------------|-------------------------------|

|--------------|
|--------------|
|--------10-12-|
|-10h12v-------|
|--------------|
|--------------|

Lo que hace pepe en los 2 versos PP
|-----------------------|
|-----------------------|
|-7-7--------5-5--------|
|-7-7---3-3--5-5--5-5---|
|-5-5---3-3--3-3--5-5---|
|-------1-1-------3-3---|

Break
R2
|--------------|
|--------------|
|-3------3/5-5-|
|-3------3/5-5-|
|-1------1/3-3-|
|--------------|

PP
|---------------------------|
|-Palm Mute-PM------Sin PM--|
|---------------------------|
|-3-(x16)---5--(x8)-5--(X8)-|
|-1---------3-------3-------|
|---------------------------|

Coro
Las 2 Guitarras hacen esto

|---------------------|-----------------------|
|---------------------|-----------------------|
|----5-5-------3-3----|-------------3-3--5-5--|
|-3--5-5--5-5--3-3--3-|(x3)-3--5-5--3-3--5-5--|
|-3--3-3--5-5--1-1--3-|-----3--5-5--1-1--3-3--|
|-1-------3-3-------1-|-----1--3-3------------|

Brigde
es solo el bajo y la bateria

|-----------------------|
|-----------------------|
|-5-------3-3-----------|
|----1-1-------3-1-3-1--|


Outro
PP Hace lo del verso

R2

|-------10------Rapidísimo-----------13v--15v--17v--17\\\--|
|-13b15---13-10-(x5)--------13b15v-------------------------|
|---------------------------------------------------7\-----|
|---------------------------------------------------7\-----|
|---------------------------------------------------5\-----|
|----------------------------------------------------------|


El orden es

Intro y Break
Verso 1 x2
Verso 2
Verso 1
Break
Coro
Break
Verso 1 x2
Break
Coro
Verso 1 x2
Bridge x4
Verso 1
Outro

esta rola es la ultima de la de l disco y es 
como la respuesta a los anti pandas
VIVA PXNDA Y el ROck mexicano°°°°!!!!!




Share "Ahh Pero Como Vendo Cassettes" by Panda


TOP 10 TABS

FRESH NEW TABS

ALL ARTISTS
artist wiki

mp3bear.com
song lyrics / contact us / privacy policy / tabspace toolbar
Copyright © 2004 - 2014 TabSpace.com - All Rights Reserved.
song: ahh pero como vendo cassettes guitar tabs by panda

0.012