:: Guitar & Bass Tabs Make Home Page
A B C D E F G H I J K L M N O P Q R S T U V W X Y Z #

  for    

On TABSPACE
Info About This Tab
Artist: Caedmons Call
Tab Type: Guitar
Difficulty: novice
Rate This Tab!
============================                  =========================
All I Know---Caedmon's Call-------------------Transfered by Asa Gaston
============================                  =========================

Intro:
G Am7 C D
G Am7 C D

(NOTE: If you are really ambitious, you can pick through these.  I have tabbed
out a pretty nice way to go about it.  It is really fast, so it will take some
practice, and mail me if you ahve questions)

----------------------------------------|
------3---------1------1p0h1--------3---|
------------------------------2---------|
--------------------------------0-0-----|
---------3p0-h3---0h3-------------------|
-3-3------------------------------------|

 ---G--- ---Am7-- ----C----- ----D----

----------------------------------------------|
-------3-----------1------1p0h1-----------3---|
--------------------------------2-------------|
----------------------------------0-(4)-0-----|
---------0h3p0-h3-----0h3---------------------|
-0-0h3----------------------------------------|

 ---G--- ---Am7-- ----C----- ----D----


Verse:
G    Am7  C    D
G    Am7  C    D
G    Am7  C    D    Em
D    C

Bridge:
D    C
D    C    D

Interlude:
G    Am7  C    D   }  This time, these are just strummed, not
G    Am7  C    D   }     picked as earlier.

Verse:
G    Am7  C   D
G    Am7
C    D
G    Am7  C   D
Em   D    C

Chorus:
G    Cadd9
D    Cadd9   G
C9   D       Cadd9
G    Cadd9   D     Cadd9  G  Cadd9  D  Cadd9

Verse:
G   Am7  C    D
G   Am7  C    D
G   Am7  C    D    Em
D   C

Bridge:
D    C
D    C    D

Chorus: (Same as above)

Verse:
G    Am7  C    D
G    D          (<-- Note the change from Am7 to D!)
C    D
G    Am7  C    D    Em
C    D

Bridge 2:
D    D
D
D    D
D
D    D
D    C

Chorus: (Same as above)

Chorus: (Same as above)

Outro:
G    Am7  C    D    }  Go back to picking through these
G    Am7  C    D    }

G    Am7  C    D
G    Am7  C    D


------------------
Chord Signatures:
------------------

Cliff: (all given relative to capo)

E|-3---0---0----3-----2---0---|
B|-3---1---1----3-----3---0---|
G|-0---0---0----0-----2---0---|
D|-0---2---2----2-----0---2---|
A|-2---0---3----3-----x---2---|
e|-3---x--(3)---x-----x---0---|

   G  Am7  C  Cadd9   D   Em


Share "All I Know" by Caedmons Call


TOP 10 TABS

FRESH NEW TABS

ALL ARTISTS
artist wiki

mp3bear.com
song lyrics / contact us / privacy policy / tabspace toolbar
Copyright 2004 - 2014 TabSpace.com - All Rights Reserved.
song: all i know guitar tabs by caedmons call

0.012