:: Guitar & Bass Tabs Make Home Page
A B C D E F G H I J K L M N O P Q R S T U V W X Y Z #

  for    

On TABSPACE
Info About This Tab
Artist: Evanescence
Tab Type: Guitar
Rate This Tab!
Evanescence All that I’m living for ( the open door)

Hey peeps, I think this is right, I hope it is. If u have any questions, e-mail ‘em to 
peacegirl_41@hotmail.com ( / = slide )


Intro
e|--------------------------------------------------|
B|--------------------------------------------------|
G|--------------------------------------------------|
D|-4-4-9-9---9-/-8-/-9-/-8--------------------------|
A|-4-4-9-9---9-/-8-/-9-/-8--------------------------|
E|-6-6-7-7---7-/-6-/-7-/-6--------------------------|

Chorus Part 1
Play the intro 1X and then this:
e|-----------------|
B|-----------------|
G|-----------------|
D|-9 -9-/-8-/-9-/-8|
A|-9—-9-/-8-/-9-/-8|
E|-7--7-/-6-/-7-/-6|
Chorus Part 2
e|---------------------------------------------------------------|
B|---------------------------------------------------------------|
G|---------------------------------------------------------------|
D|--13-13-13-----------------------------------------------------|
A|------------8-8-8----------------------------------------------|
E|-------------------9-9-9-9-9-9-9-9-9-9-9-----------------------|
Bridge
Here are the chords, there’s too many to count, just figure out how many and what the 
is. shouldn’t be too hard.
e|------------------------------------|
B|------------------------------------|
G|------------------------------------|
D|---9--4--8--------------------------|
A|---9--4--8--------------------------|
E|---7--2--6--------------------------|


Share "All That Im Living For" by Evanescence


TOP 10 TABS

FRESH NEW TABS

ALL ARTISTS
artist wiki

mp3bear.com
song lyrics / contact us / privacy policy / tabspace toolbar
Copyright © 2004 - 2014 TabSpace.com - All Rights Reserved.
song: all that im living for guitar tabs by evanescence

0.068