:: Guitar & Bass Tabs Make Home Page
A B C D E F G H I J K L M N O P Q R S T U V W X Y Z #

  for    

On TABSPACE
Info About This Tab
Artist: Gentle Giant
Tab Type: Guitar
Tuning: Open E
Rate This Tab!
Main riff: ver I
|--------------------------------------------------------------------|
|--------------------------------------------------------------8~\---|
|--------------------------------------------------------------8~\---|
|--------------------------------------------------------------8~\---|
|------6-----8-----8(9)-8p6h8\----------6-----8-----8(9)-8p6---------|
|--6h8---6h8---6h8------------------6h8---6h8---6h8----------8-------|

Main riff: ver II - 5 times
|-------------------------------------------------------------------------|
|-----------------------------8--------------------------------------8~\--|
|-----------------------------8--------------------------------------8~\--|
|-----------------------------8-10p8-10\-----------------------------8~\--|
|------6-----8-----8(9)-8p6-8-----------------6-----8-----8(9)-8p6--------|
|--6h8---6h8---6h8------------------------6h8---6h8---6h8----------8------|


 Play power chords for verse:
 Fm                    Bb     Eb                  Ab
Everyday they clock me, everyday is just the same.
         Fm                     Bb              Cm Bb Cm
And the people I see, wear the same face as me.
Fm                     Bb     Eb                  Ab
As I turn the handle, time goes slowly by.
Fm                           Dm   Gm (lo octave) F Gm     Gm (hi octave) F Gm
Is that all that there is until the day that I die?


Main riff: ver II
|-------------------------------------------------------------------------|
|-----------------------------8--------------------------------------8~\--|
|*----------------------------8--------------------------------------8~\-*|
|*----------------------------8-10p8-10\-----------------------------8~\-*|
|------6-----8-----8(9)-8p6-8-----------------6-----8-----8(9)-8p6--------|
|--6h8---6h8---6h8------------------------6h8---6h8---6h8----------8------|
All through the night.
Through the night.
All through the night.
I can't believe I'm free til morning.

Fm                  Bb             Eb                             Ab
If I wipe the dirt and sweat, Then I find that more's still there.
        Fm                                 Bb        Cm Bb Cm
If the summer don't get you, Then the winter always will.
Fm                    Bb    Eb            Ab
Try not to think, it never gets nowhere.
Fm                     Dm             Gm (lo oct.) F Gm   Gm (hi oct.) F Gm
But at least everyday ends, and the night's always there.


Main riff: ver II - 3 times
|-------------------------------------------------------------------------|
|-----------------------------8--------------------------------------8~\--|
|-----------------------------8--------------------------------------8~\--|
|-----------------------------8-10p8-10\-----------------------------8~\--|
|------6-----8-----8(9)-8p6-8-----------------6-----8-----8(9)-8p6--------|
|--6h8---6h8---6h8------------------------6h8---6h8---6h8----------8------|
All through the night.
Through the night.
All through the night.
I can't believe I'm free til morning.

Main riff: ver III
|---------------------------------------------------------------------------|
|----------------------------8----------------------------------------------|
|----------------------------8----------------------------------12--10--12~-|
|----------------------------8-10p8-10\---------------5--3--5~--12--10--12~-|
|-----6-----8-----8(9)-8p6-8-----------------6-----8--5--3--5~--10---8--10~-|
|-6h8---6h8---6h8------------------------6h8---6h8----3--1--3~--------------|

Main riff: ver I
|--------------------------------------------------------------------|
|--------------------------------------------------------------8~\---|
|--------------------------------------------------------------8~\---|
|--------------------------------------------------------------8~\---|
|------6-----8-----8(9)-8p6h8\----------6-----8-----8(9)-8p6---------|
|--6h8---6h8---6h8------------------6h8---6h8---6h8----------8-------|

Main riff: ver II - 8 times
|-------------------------------------------------------------------------|
|-----------------------------8--------------------------------------8~\--|
|-----------------------------8--------------------------------------8~\--|
|-----------------------------8-10p8-10\-----------------------------8~\--|
|------6-----8-----8(9)-8p6-8-----------------6-----8-----8(9)-8p6--------|
|--6h8---6h8---6h8------------------------6h8---6h8---6h8----------8------|
All through the night.
Through the night.
All through the night.
I can't believe I'm free til morning.

End:
|---------------------------------|
|-----------------------------8~--|
|-----------------------------8~--|
|-----------------------------8~--|
|------6-----8-----8(9)-8p6-8-----|
|--6h8---6h8---6h8----------------|

------------------------------------------------------------------------------
7~     hold (longer than other notes)
7h9    hammer-on
9p7    pull-off
7(9)   bend
(9)7   release
(9)r   release


Share "All Through The Night" by Gentle Giant


TOP 10 TABS

FRESH NEW TABS

ALL ARTISTS
artist wiki

mp3bear.com
song lyrics / contact us / privacy policy / tabspace toolbar
Copyright 2004 - 2014 TabSpace.com - All Rights Reserved.
song: all through the night guitar tabs by gentle giant

0.011