:: Guitar & Bass Tabs Make Home Page
A B C D E F G H I J K L M N O P Q R S T U V W X Y Z #

  for    

On TABSPACE
Info About This Tab
Artist: Misfits
Tab Type: Bass
Rate This Tab!
Intro
G-------------------------|
D-------------------------|
A-------------------------|
E-5-0-5-0-5-0-2-0-2-0-2-0-|

Verse
G-------------------------------------------------|
D-------------------------------------------------|
A-------------------------------------------------|
E-5-5-5-5-5-5-5-5-5-5-5-5-2-2-2-2-2-2-2-2-2-2-2-2-|

G-------------------------------------------------|
D-------------------------------------------------|
A-5-5-5-5-5-5-5-5-5-5-5-5-7-7-7-7-7-7-7-7-7-7-7-7-|
E-------------------------------------------------|

Chorus
G---------------------------------|---------------------------------|
D---------------------------------|---------------------------------|
A-5-5-5-5-7-7-7-7-----------------|-5-5-5-5-7-7-7-7-----------------|
E-----------------5-5-5-5-2-2-2-2-|-----------------5-5-5-5-2-2-2-2-|

G---------------------------------|---------------------------------|
D---------------------------------|---------------------------------|
A-5-5-5-5-7-7-7-7-----------------|-5-5-5-5-7-7-7-7-----------------|
E-----------------5-5-4-4-2-2-0-0-|-----------------5-5-5-5-2222222-|

Bridge
G--------------------------------------------------|
D--------------------------------------------------|
A-5-5-5-5-5-5-5-5-5-5-5-5--7-7-7-7-7-7-7-7-7-7-7-7-|
E--------------------------------------------------|

Order
Intro  x2
Verse  x2
Chorus x1 
Verse  x2
Chorus x1
Intro  x2
Bridge x1
Intro  x2
Chorus x2



Share "Angel Baby" by Misfits


TOP 10 TABS

FRESH NEW TABS

ALL ARTISTS
artist wiki

mp3bear.com
TabSpace.com / contact us / privacy policy / tabspace toolbar
Copyright 2004 - 2016 TabSpace.com - All Rights Reserved.
song: angel baby bass tabs by misfits

0.003