:: Guitar & Bass Tabs Make Home Page
A B C D E F G H I J K L M N O P Q R S T U V W X Y Z #

  for    

On TABSPACE
Info About This Tab
Artist: Misc Television
Tab Type: Guitar
Difficulty: intermediate
Rate This Tab!
 Intro
  Q.=110
  B     G A      G      G
 4/4
  Gtr I
  E E E E  E  Q   E   E H..
|-7-7-7----------15-|---3-----------------|
|-------8-10-10-----|---------------------|
|----------------12-|---------------------|
|-9-9-9-5--7--7-----|---5-----------------|
|-------------------|---------------------|
|-7-7-7-3--5--5--15-|---3-----------------|
|
| Gtr II
| E E E E  E  Q   E   H        E  S S E E
|-------------------|-------------8-8-8-8-|
|-----------------8-|---------------------|
|-4---4-------------|---------------------|
|---5---5--7--7-----|---------------------|
|-------------------|---------------------|
|-------------------|---------------------|
|
| Gtr IV
|                              TP
| W                   H        H
|-------------------|---------20\---------|
|-------------------|---------------------|
|-------------------|---------------------|
|-------------------|---------------------|
|-------------------|---------------------|
|-------------------|---------------------|


 Part II
  N.C.                          F
  Gtr II
   ~~~~~~~~~~~~~~~~~~~~~~~~~~~~~~~~~~~~
   Q  E E Q  E  E   Q    E H      +E
|-/8--------------|-------------------|
|-----8---8-------|----/10-8------(8)-|
|-------9----7----|-------------------|
|--------------10-|-9-----------------|
|-----------------|-------------------|
|-----------------|-------------------|
|
| Gtr I
|  W                H        Q  Q
|-----------------|-------------------|
|-----------------|-------------------|
|-----------------|-------------------|
|-----------------|-------------3S====|
|-----------------|-------------------|
|-----------------|-------------1S====|
|
| Gtr III
|  W                W
|-----------------|-------------------|
|-----------------|-------------------|
|-----------------|-------------------|
|-----------------|-------------------|
|-----------------|-------------------|
|-----------------|-------------------|


  G B     C  D      C  B   C       E  G
 ~~~~~~~~~~~~~~~~~~~~~~~~~~~~~~~~~~~~~~~~
  E S S E  E  Q      E E    E a  Q     Q  S S E  E
|---7-7-7--8-10------8-7-|--8-8s12--------8-8-8--8---|
|------------------------|-------------8-------------|
|------------------------|---------------------------|
|------------------------|---------------------------|
|------------------------|---------------------------|
|------------------------|---------------------------|
|
| E E   E  E  Q      E E    Q       E  H        +E
|---7---7--8-10------8-7-|--8------12--3--------(3)--|
|------------------------|---------------------------|
|------------------------|---------------------------|
|-5-9---9-10-12-----10-9-|-10------14--5--------(5)--|
|------------------------|---------------------------|
|-3-7---7--8-10------8-7-|--8------12--3--------(3)--|
|
| E E   E  E  Q      E E    E    Q     H         E
|------------------------|---------------------------|
|------------------------|---------------------------|
|------------------------|-------9-------------------|
|---9---9-10-10b14r=10-9-|-10------------------------|
|------------------------|------------10-------------|
|------------------------|---------------------------|


  N.C.                          F       G        A  B   A  G    C
  ~~~~~~~~~~~~~~~~~~~~~~~~~~~~~~~~~~~~~~~~~~~~~~~~~~~~~~~~~~~~~~~~~~
  a Q  E E Q  E  E   Q   E H      +E     E  E  E  E  Q   E  E    Q   H.
|-7s8--------------|------------------|-15-15-15-17-19--17----|-20\--------|
|------8---8-------|----10-8------(8)-|--------------------20-|------------|
|--------9----7----|------------------|-----------------------|------------|
|---------------10S|=9----------------|-----------------------|------------|
|------------------|------------------|-----------------------|------------|
|------------------|------------------|-----------------------|------------|
|
|   W                H       Q  Q        E  E  E  E  Q   E  E    Q   H.
|------------------|------------------|--3--------------------|------------|
|------------------|------------------|-----8--8-10-12--10--8-|-13\--------|
|------------------|------------------|-----------------------|------------|
|------------------|------------3S====|==5--5--5--7--9---7--5-|-10\--------|
|------------------|------------------|-----------------------|------------|
|------------------|------------1S====|==3--------------------|------------|


 Part III
  N.C.
            ~~~~~~~~~~~~~~~~~~~~~~~~~~~~~~~~~~~~~~~~~~~~~~~~~~~~~~~~~~~~~
  H.      E S S   Q.     E Q   Q     E E  E Q   E E S S   Q.     E Q   Q
|---------------|------------------|--------7-----------|------------------|
|---------------|-7------7-7-------|-8-x-10-------------|-7------7-7-------|
|-----------7-9-|--------------7---|------------7-7-7-9-|--------------7---|
|---------------|------------------|--------------------|------------------|
|---------------|------------------|--------------------|------------------|
|---------------|------------------|--------------------|------------------|
|
| Gtr IV
| W               E  E E E E E E E   E E  E E E E E E     E  E E E E E E E
|---------------|------------x-x-x-|-x-x--x-------------|------------x-x-x-|
|---------------|----x-x-x-x-------|--------x-x-x-------|----x-x-x-x-------|
|---------------|-x----------------|--------------x-x---|-x----------------|
|---------------|------------------|--------------------|------------------|
|---------------|------------------|--------------------|------------------|
|---------------|------------------|--------------------|------------------|


  E E  E Q   E E S S   Q.    E Q  Q
|--------7-----------|-7-----7-7-----|
|-8-x-10-------------|---------------|
|------------7-7-7-9-|------------9--|
|--------------------|---------------|
|--------------------|---------------|
|--------------------|---------------|
|
| E E  E E E E E E     Q   Q   Q  Q
|-x-x--x-x-x-x-------|---------------|
|--------------x-x---|---------------|
|--------------------|---------------|
|--------------------|-x-------x-----|
|--------------------|-----x------x--|
|--------------------|---------------|
|
| Gtr I
| W                    W
|--------------------|---------------|
|--------------------|---------------|
|--------------------|---------------|
|--------------------|---------------|
|--------------------|---------------|
|--------------------|---------------|


  C             D5/A     F
   E  Q      Q    E Q     E S S E S S Q   Q
|--8--7\-----5----3----|--------5-----5--------|
|-------------------5--|----6-8---6-8-----6----|
|----------------------|-----------------------|
|----------------------|-----------------------|
|----------------------|-----------------------|
|----------------------|-----------------------|
|
|  Q     Q      Q   Q     H           E E E E
|----------------------|------------------x-x--|
|----------------------|----------------x------|
|----------------------|--------------x--------|
|--x-----x------x---x--|-----------------------|
|----------------------|-----------------------|
|----------------------|-----------------------|
|
|  Q.       +E  H         W
|--8--------(8)s5------|-----------------------|
|----------------------|-----------------------|
|---------------7------|-----------------------|
|-10-------(10)s7------|-/3--------------------|
|---------------5------|-----------------------|
|--8--------(8)s5------|-/1--------------------|


  G                        F
   E S  S E S  S Q   Q      E  S  S  E  S  S  Q    Q
|---------7------7-------|-----------------------------|
|----8-10---8-10-----8---|----10-12-13-10-12-13---10---|
|------------------------|-----------------------------|
|------------------------|-----------------------------|
|------------------------|-----------------------------|
|------------------------|-----------------------------|
|
|  H             E E E E    H                 E E  E E
|----------------------x-|---------------------------x-|
|------------------x-x---|--------------------x-x--x---|
|----------------x-------|-----------------------------|
|------------------------|-----------------------------|
|------------------------|-----------------------------|
|------------------------|-----------------------------|
|
|  W                        W
|------------------------|-----------------------------|
|------------------------|-----------------------------|
|------------------------|-----------------------------|
|-/5---------------------|-/3--------------------------|
|------------------------|-----------------------------|
|-/3---------------------|-/1--------------------------|


  N.C.
   ~~~~~~~~~~~~~~~~~~~
   W              +H        +E  S  S E E
|-15-----------|-(15)------(15)-8--8-8-8--|
|--------------|--------------------------|
|--------------|--------------------------|
|--------------|--------------------------|
|--------------|--------------------------|
|--------------|--------------------------|
|
|  W              +W
|--x-----------|--(x)---------------------|
|--------------|--------------------------|
|--------------|--------------------------|
|--------------|--------------------------|
|--------------|--------------------------|
|--------------|--------------------------|
|
|  H..       e     q   e q      Q.
|--------------|--------------------------|
|--------------|--------------------------|
|--------------|--------------------------|
|--------------|---5----------------------|
|--------------|--------------------------|
|------------3-|-------3-5------7---------|


 Part IV
                       A5 G5     F
   ~~~~~~~~~~~~~~~~~~~~~~~~~~~~~~~~~~
   Q  E E Q  E  E   Q   E H        E
|-/8--------------|------------------|
|-----8---8-------|----------------8-|
|-------9----7----|------------------|
|--------------10-|-9--/7-5----------|
|-----------------|------------------|
|-----------------|------------------|
|
| Gtr I
|                         >
|  W                Q   E Q  +E  Q
|-----------------|------------------|
|-----------------|------------------|
|-----------------|------------------|
|-----------------|--------------3s==|
|-----------------|------------------|
|-----------------|----/7s5--(5)-1s==|
|
| Gtr IV
|  TP               TP
|  W                W
|-----------------|------------------|
|-----------------|------------------|
|-----------------|------------------|
|-----------------|------------------|
|--x--------------|-x----------------|
|-----------------|------------------|


  G   B     C  D   C  B   C       E  G
      ~~~~~~~~~~~~~~~~~~~~~~~~~~~~~~~~~
  +E  S S E  E  Q   E E    E a  Q    Q  S S E  E
|-----7-7-7--8-10---8-7-|--8-8s12-------8-8-8--8---|
|-(8)-------------------|------------8-------------|
|-----------------------|--------------------------|
|-----------------------|--------------------------|
|-----------------------|--------------------------|
|-----------------------|--------------------------|
|
|  E  E   E  E  Q   E E    Q       E H        +E
|-----7---7--8-10---8-7-|--8------12-3--------(3)--|
|-----------------------|--------------------------|
|-----------------------|--------------------------|
|--5--9---9-10-12--10-9-|-10------14-5--------(5)--|
|-----------------------|--------------------------|
|--3--7---7--8-10---8-7-|--8------12-3--------(3)--|
|
|  TP                      TP
|  W                       W
|-----------------------|--------------------------|
|-----------------------|--------------------------|
|-----------------------|--------------------------|
|-----------------------|--------------------------|
|--x--------------------|--x-----------------------|
|-----------------------|--------------------------|


  C                       A     G5 F       G      G   A  B   A  G
   ~~~~~~~~~~~~~~~~~~~~~~~~~~~~~~~~~~~~~~~~~~~~~~~~~~~~~~~~~~~~~~~~
   Q   E  E  Q  E  E   Q    E H      +E      E  E  E   E  Q   E  E
|-/8-----------------|-------------------|-/15-15-15--17-19--17----|
|------8----/8-------|----/10-8------(8)-|----------------------20-|
|---------9-----7----|-------------------|-------------------------|
|-----------------10S|=9-----------------|-------------------------|
|--------------------|-------------------|-------------------------|
|--------------------|-------------------|-------------------------|
|
|  Q   H.              Q    Q   Q  Q         Q     E   E  Q   E  E
|-20\----------------|------5s==3--------|---3---------------------|
|--------------------|----------3--------|---------8--10-12--10--8-|
|-17\----------------|-------------------|-------------------------|
|--------------------|------7s==5--3s====|===5-----5---7--9---7--5-|
|-15\----------------|-------------------|-------------------------|
|--------------------|------5s==3--1s====|===3---------------------|
|                                            Q     H.
|
|  TP                  TP
|  W                   W                     W
|--------------------|-------------------|-------------------------|
|--------------------|-------------------|-------------------------|
|--------------------|-------------------|-------------------------|
|--------------------|-------------------|-------------------------|
|--x-----------------|-x-----------------|-------------------------|
|--------------------|-------------------|-------------------------|


 Outro
            F     Gmadd11/G        A  B   A  G
  Gtrs I, II
             <
             ~~~~~~~~~~~~~~~~~~~~~~~~~~~~~~~~~~~~
   H         Q     Q       E  E  E  E  Q   E  E
|------------1s===20----|-15-15-15-17-19--17-15-|
|------------1----20----|-----------------------|
|-----------------------|-12-12-12-14-16--14-12-|
|------------3s===20----|-----------------------|
|-----------------------|-----------------------|
|------------1s===20----|-15-15-15-17-19--17-15-|
|
| Gtr III
|  E  E E E  E  E  E  E    W
|-----------------------|-----------------------|
|-----------------------|-----------------------|
|-------9-9-------------|-----------------------|
|-10-10-----10-10-------|-----------------------|
|-----------------10-10-|-----------------------|
|-----------------------|-----------------------|


  B                         C
   <
 ~~~~~~~~~~~~~~~~~~~~~~~~~~~~~~
   E  E  E  E  E  E  E  E    Q  H.
|-19-19-19-19-19-19-19-19-|-20--------*|
|-------------------------|-----------*|
|-------------------------|-----------*|
|-21-21-21-21-21-21-21-21-|-22--------*|
|-------------------------|-----------*|
|-19-19-19-19-19-19-19-19-|-20--------*|
|
|  W                         W
|-------------------------|-----------*|
|-------------------------|-----------*|
|-------------------------|-----------*|
|-------------------------|-----------*|
|-------------------------|-----------*|
|-------------------------|-----------*|



Duration Legend
---------------
W - whole; H - half; Q - quarter; E - 8th; S - 16th; T - 32nd; X - 64th; a - acciaccatura
+ - note tied to previous; . - note dotted; .. - note double dotted
Uncapitalized letters represent notes that are staccato (1/2 duration)
Irregular groupings are notated above the duration line
Duration letters will always appear directly above the note/fret number it represents the
duration for.  Duration letters with no fret number below them represent rests.  Multi-
bar rests are notated in the form Wxn, where n is the number of bars to rest for.  Low
melody durations appear below the staff

Tablature Legend
----------------
 h   - hammer-on
 p   - pull-off
 b   - bend
 pb  - pre-bend
 r   - bend release (if no number after the r, then release immediately)
 /\  - slide into or out of (from/to "nowhere")
 s   - legato slide
 S   - shift slide
 - natural harmonic
[n]  - artificial harmonic
n(n) - tapped harmonic
 ~   - vibrato
 tr  - trill
 T   - tap
 TP  - trem. picking
 PM  - palm muting
\n/  - tremolo bar dip; n = amount to dip
 \n  - tremolo bar down
 n/  - tremolo bar up
/n\  - tremolo bar inverted dip
 =   - hold bend; also acts as connecting device for hammers/pulls
 <> - volume swell (louder/softer)
 x   - on rhythm slash represents muted slash
 o   - on rhythm slash represents single note slash

Misc Legend
-----------
 |  - bar
||  - double bar
||o - repeat start
o|| - repeat end
*|  - double bar (ending)
 :  - bar (freetime)
 $  - Segno
 &  - Coda
Tempo markers -  = BPM(8/16=s8/s16), where s8 = swing 8ths, s16 = swing 16ths




Share "Angry Beavers Theme" by Misc Television


TOP 10 TABS

FRESH NEW TABS

ALL ARTISTS
artist wiki

mp3bear.com
song lyrics / contact us / privacy policy / tabspace toolbar
Copyright 2004 - 2014 TabSpace.com - All Rights Reserved.
song: angry beavers theme guitar tabs by misc television

0.016