:: Guitar & Bass Tabs Make Home Page
A B C D E F G H I J K L M N O P Q R S T U V W X Y Z #

  for    

On TABSPACE
Info About This Tab
Artist: Evanescence
Tab Type: Guitar
Difficulty: intermediate
Rate This Tab!
Song: Anywhere
Artist: Evanescence

Tabber: Zeidrich.
        Thanks to Flanmardel for the solo :)

F#m                       A                 E
Dear my love, haven't you wanted to be with me
    F#m                       A            E
And dear my love, haven't you longed to be free
  F#m                        A            E
I can't keep pretending that I don't even know you
    F#m                        A  E
And at sweet night, you are my own
F#m        E
Take my hand

[CHORUS:]
      A       E      F#m
We're leaving here tonight
        D                      C#m
There's no need to tell anyone
       Bm           E
They'd only hold us down
   A      E        F#m
So by the mornings light
      D                       C#m
We'll be half way to anywhere
      Bm                E         A    A/G#
Where love is more than just your name

F#m                A                 E
I have dreamt of a place for you and I
F#m                     A   E
No one knows who we are there
F#m                   A               E
All I want is to give my life only to you
F#m                          A        E
I've dreamt so long I cannot dream anymore
      F#m       E
Let's run away, I'll take you there

      A       E      F#m
We're leaving here tonight
        D                      C#m
There's no need to tell anyone
       Bm           E
They'd only hold us down
   A      E        F#m
So by the mornings light
      D                       C#m
We'll be half way to anywhere
      Bm     E       A
Where no-one needs a reason

Bm          C#m
Forget this life
          D
Come with me
           E
Don't look back you're safe now
Bm          C#m
Unlock your heart
          D
Drop your guard
         E
No one's left to stop you

Bm          C#m
Forget this life
     D
Come with me
           E
Don't look back you're safe now
Bm          C#m
Unlock your heart
     D
Drop your guard
         E                D
No one's left to stop you now

[Guitar Solo]

e-------------------------------------------------------------------|
b-------------------------------------------------------------------|
g-------------------------9-9h11p9----------------------------------|
d---------9-11-12-11-9h11----------11-11^-9-----9----11----12-11-9--|
a-9-11-12-----------------------------------12----------------------|
e-------------------------------------------------------------------|

e----------------------------------------------10-------------------|
b-10p9---------9--10-9h10p9-10^-9-9h10--10-9---10-------------------|
g------11-9-11------------------------------11-11--13--14-13-14-16--|
d-------------------------------------------------------------------|
a-------------------------------------------------------------------|
e-------------------------------------------------------------------|

      A       E      F#m
We're leaving here tonight
        D                      C#m
There's no need to tell anyone
       Bm           E
They'd only hold us down
   A      E        F#m
So by the mornings light
      D                       C#m
We'll be half way to anywhere
      Bm                E         A
Where love is more than just your name
E F#m  D  C#m Bm E  A


Share "Anywhere" by Evanescence


TOP 10 TABS

FRESH NEW TABS

ALL ARTISTS
artist wiki

mp3bear.com
song lyrics / contact us / privacy policy / tabspace toolbar
Copyright 2004 - 2014 TabSpace.com - All Rights Reserved.
song: anywhere guitar tabs by evanescence

0.007