:: Guitar & Bass Tabs Make Home Page
A B C D E F G H I J K L M N O P Q R S T U V W X Y Z #

  for    

On TABSPACE
Info About This Tab
Artist: Panda
Tab Type: Guitar
Difficulty: intermediate
Rate This Tab!
Atractivo Encontramos En Lo Más Repugnante Tab by Panda 

TABBED by: Roberto_metal

PARA TODOS LOS QUE NO CUENTAN CON EL GUITAR PRO Y ESTABAN ESPERANDO AQUÍ ESTA EL INTRO/VERSO
DE LA ROLA, PRONTO SUBIRE EL CORO Y LO DEMAS 



INTRO

|-------------------------------------------------------------------|
|-------------------------------------------------------------------|
|------12---11---12-------------------------------------------------|
|----9----9----9----12-9--9-12-9-12---------------------------------|
|-------------------------------------------------------------------|
|-------------------------------------------------------------------|

ESTO SE TOCA DOS VECES SIN ACOMPAÑAMIENTO Y SIN DISTORSIÓN

LUEGO SE TOCA ACOMPAÑADA DE ESTO 



|--------------------------------------------------------------------------------------------------------|
|--------------------------------------------------------------------------------------------------------|
|--------------------------------------------------------------------------------------------------------|
|-----9-9-9-9-9-9-9---5-5-5-5-5-5-5---3-3-3-3-3-3-3---7-7-7-7-7-7-7--------------------------------------|
|-----9-9-9-9-9-9-9---5-5-5-5-5-5-5---3-3-3-3-3-3-3---7-7-7-7-7-7-7--------------------------------------|
|-----7-7-7-7-7-7-9---3-3-3-3-3-3-3---1-1-1-1-1-1-1---5-5-5-5-5-5-5-------------------------------------



Share "Atractivo Encontramos En Lo Mas Repugnante Intro" by Panda


TOP 10 TABS

FRESH NEW TABS

ALL ARTISTS
artist wiki

mp3bear.com
song lyrics / contact us / privacy policy / tabspace toolbar
Copyright © 2004 - 2014 TabSpace.com - All Rights Reserved.
song: atractivo encontramos en lo mas repugnante intro guitar tabs by panda

0.002