:: Guitar & Bass Tabs Make Home Page
A B C D E F G H I J K L M N O P Q R S T U V W X Y Z #

  for    

On TABSPACE
Info About This Tab
Artist: 30 Seconds To Mars
Tab Type: Bass
Difficulty: novice
Rate This Tab!
-------------------------------------------------------------------------------
		         Attack - 30 Seconds To Mars
-------------------------------------------------------------------------------

Artist: 30 Seconds To Mars
Song: Attack
Tabbed By : Zeroisgreatman
Tuning: EADG

(The song starts off with a keyboard intro, then vocals, and the bass is cued
With the other instruments.  Correctly, the bass starts on the word "Suffer")

Verse: "I won't suffer..." 
G|---------------------------------------------------------------------------|
D|---------------------------------------------------------------------------|
A|-------------------------------------------------------------------{Rest}--|
E|-4-4-4-4-4-4-4-4-4-4--\3-3-3-3-3-3-3-3-3-3--\1-1-1-1-1-1-1-1-1-1-----------|

(After Playing through, the band stops playing "{Rest}"for the vocalist to cue 
the second half, It's cued by the word "Started")

G|---------------------------------------------------------------------------|
D|-------------------------------------------------------------------{Rest}--|
A|-4-4-4-4-4-4-4-4-4-4--/6-6-6-6-6-6-6-6-6-6--/8-8-8-8-8-8-8-8-8-8-----------|
E|---------------------------------------------------------------------------|


Chorus: (C.1) "Run away, Run Away..."
G|---------------------------------------------------------------------------|
D|---------------------------------------------------------------------------|
A|-4-4-4-4-4-4-4-4-4-4-4-4--/6-6-6-6-6-6-6-6-6-6--/8-8-8-8-8-8-8-8-8-8-------|
E|---------------------------------------------------------------------------|

{First Time} (C.2) "Go chase yourself..."
G|---------------------------------------------------------------------------|
D|---------------------------------------------------------------------------|
A|---------------------------------------------------------------------------|
E|-8-8-8-8-8-8-8-8-----------------------------------------------------------|

(After playing C.2, play C.1 again, then play C.3.  Now in this portion,
The bass slides when the guy starts screaming, the slide can take place 
Anywhere, if you're fast enough, try to slide from the 1st fret to the 10th)

{Second Time} (C.3) "WHOA!!!"
G|---------------------------------------------------------------------------|
D|-/10-10-10-10-10-10-10-10-10-10-10-----------------------------------------|
A|---------------------------------------------------------------------------|
E|---------------------------------------------------------------------------|

Bridge: "Your Promises..." (Time: 1:41 - 2:02)
(The bass doesn't play anything for the Bridge, but right after words,
It goes through the chorus again)

Outro: (Same as the verse, only it skips V.1 and plays V.2)

[Legend]

| /  slide up
| \  slide down
| h  hammer-on
| p  pull-off
| ~  vibrato
| +  harmonic
| x  Mute note

==============================================================================


Share "Attack" by 30 Seconds To Mars


TOP 10 TABS

FRESH NEW TABS

ALL ARTISTS
artist wiki

mp3bear.com
song lyrics / contact us / privacy policy / tabspace toolbar
Copyright 2004 - 2014 TabSpace.com - All Rights Reserved.
song: attack bass tabs by 30 seconds to mars

0.015