:: Guitar & Bass Tabs Make Home Page
A B C D E F G H I J K L M N O P Q R S T U V W X Y Z #

  for    

On TABSPACE
Info About This Tab
Artist: Daphne Loves Derby
Tab Type: Guitar
Difficulty: novice
Rate This Tab!
Daphne Loves Derby
Aware Rust and Repair

Standard Tuning


Intro:
Guitar 1
e|--------3---------------------------------------|
B|-3-3-3--3---------------------------------------|
G|-0-0-0--0---------------------------------------|  x3
D|-4-4-4--0--2------------------------------------|
A|-3-3-3--2--2------------------------------------|
E|--------3---------------------------------------|

Guitar 2
e|-----10---10-----10-8-7-5-----------------------|
B|-7-8---7-8---7-8--------------------------------|
G|------------------------------------------------|  x3
D|------------------------------------------------|
A|------------------------------------------------|
E|------------------------------------------------|


Prechorus:
Guitar 1
e|------------------------------------------------|
B|-3---3---3-3---3--3--3-3------------------------|
G|-0---0---0-0---0--0--0-0------------------------|
D|-4---4---4-4---4--4--4-4------------------------|
A|-3---3---3-3---5--5--5-5------------------------|
E|------------------------------------------------|


Chorus:
Guitar 1
e|---3-3---3-3--3-3---3-3-3-3-3-3-----------------|
B|---3-3---3-3--3-3---3-3-3-3-3-3-----------------|
G|---0-0---0-0--0-0---0-0-0-0-0-0-----------------|
D|---0-0---2-2--2-2---2-2-2-2-2-2-----------------|
A|---2-2---0-0--3-3---3-3-3-3-3-3-----------------|
E|---3-3------------------------------------------|

e|---3---3-3-3---3---3-3-3-------------------------|
B|---------------------------1---------------------|
G|---4---4-4-4---6---6-6-6-------------------------|
D|---5---5-5-5---5---5-5-5---2---------------------|
A|---5---5-5-5---------------3---------------------|
E|-------------------------------------------------|


Verse
Prechorus
Chorus
Verse
Prechorus
Chorus


Share "Aware Rust And Repair" by Daphne Loves Derby


TOP 10 TABS

FRESH NEW TABS

ALL ARTISTS
artist wiki

mp3bear.com
song lyrics / contact us / privacy policy / tabspace toolbar
Copyright 2004 - 2014 TabSpace.com - All Rights Reserved.
song: aware rust and repair guitar tabs by daphne loves derby

0.023