:: Guitar & Bass Tabs Make Home Page
A B C D E F G H I J K L M N O P Q R S T U V W X Y Z #

  for    

On TABSPACE
Info About This Tab
Artist: Panic At The Disco
Tab Type: Bass
Difficulty: intermediate
Rate This Tab!
Back to the Streets(Night in the Afternoon) - Panic! At the disco
Standard Tuning (EADG)
Sorry you have to work out the timing yourself but its easy, everything’s tabbed
in order so just play through

Key
>Hold out note

Intro (Back to the streets where we began...)
G-----------------------------| x 3        |----------------------------|
D-----------------------------|            |----------------------------|
A-3--3--3--3--3--3--3--3------|            |-0--3--5--3---------3--3----|
E-----------------------------|            |--------------0--3----------|

G-----------------------------| x1        |-----------------------------|
D-----------------------------|            |----------------------------|
A-3--3--3--3--3--3--3--3------|            |-3--3--3--3--3--5--7--9-----|
E-----------------------------|            |----------------------------|

G--------------------------------------------------------------------------|
D--------------------------------------------------------------------------|
A-0--3--5--3--------3--3----3--3--3--3---0--0--0--------------------3---5--|
E-------------0--3-------------------------------3--3--3--3--1>--5>--------|

Verse (Into a place where thoughts can bloom…)
G------------------------------| x 2    |--------------------------------|
D------------------------------|    |------------------------------------|
A-3--3--3--3--3--3--3--3-------|    |-0--3--5--3---------3--3------------|
E------------------------------|    |---------------0--3-----------------|


G ----------------------------| x 1    |---------------------------------|
D-----------------------------|        |---------------------------------|
A-3--3--3--3--3--3--3--3------|        |-3--3--3--3--3-------------------|
E-----------------------------|        |-----------------0--1--3---------|

G------------------------------|
D------------------------------|
A-0--3--5--3--------3--3-------|
E---------------0--3-----------|

Chorus (Its night in the afternoon…)
G-------------------------------------------------------------------------|
D-------------------------------------------------------------------------|
A--3-3-3-3-3-3-3-3-------------------7-7-7-7-7-7-7-7----------------------|
E-------------------5-5-5-5-5-5-5-5------------------1-1-1-1-1-1-1-1------|

G---------------------------------------------------------------|
D---------------------------------------------------------------|
A-3-3-3-3-3-3-3-3---------------------7-7-7-7-7-7-7-7-----------|
E---------------------5-5-5-5-5-5-5-5---------------------------|

Verse (Back to streets…)
G-----------------------------| x1
D-----------------------------|
A-3--3--3--3--3--3--3--3------|
E-----------------------------|

G------------------------------------------------------------------------|
D------------------------------------------------------------------------|
A-3--------3--------3-------3-5-7-9-----0--3--5--3----------3------------|
E----------------------------------------------------0--3----------------|

G ---------------------------| x 1    |-------------------------------|
D----------------------------|        |-------------------------------|
A-3--3--3--3--3--3--3--3-----|        |-3--3--3--3--3-----------------|
E----------------------------|        |-------------------0--1--3-----|

G---------------------------|
D---------------------------|
A-0--3--5--3--------3--3----|
E---------------0--3--------|

Pre Chorus (Back to the Street, Back to the place…)
G-----------------------------------| x2    |-----------------|
D-----------------------------------|        |----------------|
A--3333-----------------------------|        |------3---5-----|
E----------5555---0000--1111--------|        |--3-------------|

Chorus (Its night in the afternoon…)
G----------------------------------------------------------------------| x 2
D----------------------------------------------------------------------|
A--3-3-3-3-3-3-3-3------------------7-7-7-7-7-7-7-7--------------------|
E------------------5-5-5-5-5-5-5-5------------------1-1-1-1-1-1-1-1----|

Outro
G--------------------------------------------------------|
D--------------------------------------------------------|
A-3>---------------------7>-------------------3>---------|
E-----------5>-----------------------1>------------------|


Tabbed by Jewheferez!


Share "Back To The Streets" by Panic At The Disco


TOP 10 TABS

FRESH NEW TABS

ALL ARTISTS
artist wiki

mp3bear.com
song lyrics / contact us / privacy policy / tabspace toolbar
Copyright © 2004 - 2014 TabSpace.com - All Rights Reserved.
song: back to the streets bass tabs by panic at the disco

0.016