:: Guitar & Bass Tabs Make Home Page
A B C D E F G H I J K L M N O P Q R S T U V W X Y Z #

  for    

On TABSPACE
Info About This Tab
Artist: Wasp
Tab Type: Bass
Difficulty: intermediate
Rate This Tab!
Artist:W.A.S.P.
Song:B.A.D.
Album:W.A.S.P.
Bassist:Blackie Lawless
Tabber:Dev Fuld

Well, this is such a kickass W.A.S.P. tune that I had to tab it. 
I tabbed it how I play it, which shoul be correct. The first B.A.D. 
bass tab out there, here ya go...

Key:
> = slide down
x = times a number
* = let it ring

*Guitar Intro*

Intro
G:-----------------------|-----------------------------------|
D:----------6*-----------|-----------------------------------|
A:-----------------------|-----------------------------------|
E:4>-4>-4>-----4>-4>-4>--|4x14-2-3-4x14-2-3-4x14-2-3-4x14-2-3|

Verse
G:---------------------------------------------------------|
D:---------------------------------------------------------|
A:---------------------------------------------------------|
E:4*---4*---4*---4*---0--0*--2--2*--4x16-0--0*--2--2*--4x16|

Pre-Chorus
G:----------|
D:----------|
A:----------|
E:0*---2*---|

Chorus 1
G:---------------------------|------------------------------|
D:---------------------------|------------------------------|
A:------------------------4-2|------------------------4-2-4*|
E:--4--4--4--0-2--4--4--4----|--4--4--4--0-2--4--4--4-------|

After Chorus
G:-----------------|
D:-----------------|
A:-----------------|
E:4x14-2-3-4x14-2-3|

Verse

Pre-Chorus

Chorus 1

Solo
G:-------------------------------|-------------------------------------|
D:-------------------------------|-------------------------------------|
A:-------------------------------|-------------------------------------|
E:4x14-2-3-4x14-2-3-4x14-2-3-4x14|0--0*--2--2*--4x16-0--0*--2--2*--4x16|

Pre-Chorus

Chorus 2 
G:---------------------------|---------------------------|
D:---------------------------|---------------------------|
A:------------------------4-2|------------------------4-2|
E:--4--4--4--0-2--4--4--4----|--4--4--4--0-2--4--4--4----|

G:---------------------------|------------------------------|
D:---------------------------|------------------------------|
A:------------------------4-2|------------------------4-2-4*|
E:--4--4--4--0-2--4--4--4----|--4--4--4--0-2--4--4--4-------|

End
G:-------|
D:-------|
A:-------|
E:4-4-2-4|

That's it! Like I said before...kickass tune, off of W.A.S.P.'s 
first album. One of their best in my opinion. I already out this 
tab in order for ya, so Rock N Roll! Any questions or comments, 
e-mail me at rocklvson@yahoo.com



Share "Bad" by Wasp


TOP 10 TABS

FRESH NEW TABS

ALL ARTISTS
artist wiki

mp3bear.com
song lyrics / contact us / privacy policy / tabspace toolbar
Copyright 2004 - 2014 TabSpace.com - All Rights Reserved.
song: bad bass tabs by wasp

0.014