:: Guitar & Bass Tabs Make Home Page
A B C D E F G H I J K L M N O P Q R S T U V W X Y Z #

  for    

On TABSPACE
Info About This Tab
Artist: 30 Seconds To Mars
Tab Type: Guitar
Rate This Tab!


30 Seconds to Mars                                     30 Seconds to Mars

---------                                                       ---------

2010                                                                 2010


                                 "Bad Romance"

                               (Lady Gaga cover)
                           BBC Radio 1's Live Lounge



             F                  G
Oh-oh-oh-oh-oooh-Oh-oh-oooh-oh-oh!
Am              C
Caught in a bad romance


             F                  G
Oh-oh-oh-oh-oooh-Oh-oh-oooh-oh-oh!
Am              C
Caught in a bad romance



Am
I want your love
I want your disease
Am
I want you open muothed and on your knees
             F
I want your love
G        
Love-love-love
             Am
I want your love


Am
I want your drama
The touch of your hand
Am
I want you leather chocked handcuffed to the bed
                F
And I want your love
G
Love-love-love
            Am
I want your love



E:--------------------------------------------------------------------------|
B:--------------------------------------------------------------------------|
G:--141414141414141414141414141414141414141414141414141414141414-12-12------|
D:--141414141414141414141414141414141414141414141414141414141414-14-14------| x2
A:--------------------------------------------------------------------------|
E:--------------------------------------------------------------------------|

F            
I want your loving
       G
And I want your revenge
         Am                    C
You and me could write a bad romance
F
I want your loving
          G
All your love is revenge
        Am                     C
You and me could write a bad romance



E:--------------------------------------------------------------------------|
B:---------8--------8-----------8----------8--------8-----------8-----------|
G:--------------------------------------------------------------------------|
D:--9h10p9---9h10p9---9h10p9h10-----9h10p9---9h10p9---9h10p9h10-------------| x2
A:--------------------------------------------------------------------------|
E:--------------------------------------------------------------------------|

             F                  G
Oh-oh-oh-oh-oooh-Oh-oh-oooh-oh-oh!
A               C
Caught in a bad romance

             F                  G
Oh-oh-oh-oh-oooh-Oh-oh-oooh-oh-oh!
A               C
Caught in a bad romance


                                         this part sounds weird*
E:---------12-13-12---------12-12-13-12-------12-13-12-----------------------------|
B:-------------------------------------------------------13-13-10-13r10------------|
G:--14-14-----------14--14--------------14-14--------------------------------------|
D:---------------------------------------------------------------------------------|
A:------------------------------------------------------(15-15-12-15r12)-----------|
E:---------------------------------------------------------------------------------|




I want your horror
I want your design
They can bare
As long as your mine
I want your love
Love-love-love
I want your love

E:-----------------------|
B:---------------(5)-----|
G:--4b5r4-0-2------------|
D:------------2----------|
A:-----------------------|
E:-----------------------|


I want your psycho
Your vertical stick
Want you in my bed
I'll make you sick
I want your love
Love-love-love

I want your loving
And I want your revenge
You and me could write a bad romance
I want your loving
All your love is revenge
You and me could write a bad romance

Oh-oh-oh-oh-oooh!
Caught in a bad romance

Oh-oh-oh-oh-oooh!
Caught in a bad romance


E:---------12-13-12---------12-12-13-12-------12-13-12-----------------------------|
B:-------------------------------------------------------13-13-10-13r10------------|
G:--14-14-----------14--14--------------14-14--------------------------------------| x2
D:---------------------------------------------------------------------------------|
A:------------------------------------------------------(15-15-12-15r12)-----------|
E:---------------------------------------------------------------------------------|


F           G
I want your love
                  Am
And I want your revenge
            C
I want your love
                 F
I don't wanna be friends

            G
Je veux ton amour
                 Am
Et je veux ta revanche
           C
J'veux ton amour


                   F  G  Am  C  F  G  Am 
I don't wanna be friends [4x]
No No


E:--------------------------------------------------------------------------|
B:--------------------------------------------------------------------------|
G:--1414141414141414-1616161616161616-1717171717171717-16161616-12121212----| x2
D:--------------------------------------------------------------------------|
A:--------------------------------------------------------------------------|
E:--------------------------------------------------------------------------|

I want your loving
And I want your revenge
You and me could write a bad romance
I want your loving
and all your love is revenge
You and me could write a bad romance


    F                     G                   Am                    C
E:-----------15----------15-------------12-13----------15----------15-------------12-13-|
B:--------------------------------------------------------------------------------------|
G:--------------------------------------------------------------------------------------|
D:--------------------------------------------------------------------------------------|
A:--14h15p14----14h15p14----14h15p14h15-------14h15p14----14h15p14----14h15p14h15-------|
E:--------------------------------------------------------------------------------------|
 Oh-oh-oh-oh-oooh! Oh-oh-oooh-oh-oh!           Caught in a bad romance      Oh-oh-oooh-oh-oh!

    F                     G                   Am                   C          Am
E:-----------15----------15-------------12-13----------15----------15\--------------|
B:----------------------------------------------------------------------------------|
G:----------------------------------------------------------------------------------|
D:----------------------------------------------------------------------------------|
A:--14h15p14----14h15p14----14h15p14h15-------14h15p14----14h15p14------------------|
E:----------------------------------------------------------------------------------|
 Oh-oh-oooh-oh-oh!  Oh-oh-oooh-oh-oh!           Caught in a bad romance


Share "Bad Romance" by 30 Seconds To Mars


TOP 10 TABS

FRESH NEW TABS

ALL ARTISTS
artist wiki

mp3bear.com
song lyrics / contact us / privacy policy / tabspace toolbar
Copyright 2004 - 2014 TabSpace.com - All Rights Reserved.
song: bad romance guitar tabs by 30 seconds to mars

0.014