:: Guitar & Bass Tabs Make Home Page
A B C D E F G H I J K L M N O P Q R S T U V W X Y Z #

  for    

On TABSPACE
Info About This Tab
Artist: Gerry Rafferty
Tab Type: Guitar
Difficulty: intermediate
Rate This Tab!
Gerry Rafferty

Baker Steet Guitar solo




4:51

|-20r17-20r17-20r17-20b22~r---17r15b17---15-13-15b17r15p13---------------------|
|----------------------------------------------------------15~----14b15~-------|
|------------------------------------------------------------------------------|
|------------------------------------------------------------------------------|
|------------------------------------------------------------------------------|
|------------------------------------------------------------------------------|
 

|------------------15-15b17-r15b17~--17b15-17b15-17b15-17b15-17b15-17b15-17b15-|
|-15r14-14b15-15---------------------------------------------------------------|
|------------------------------------------------------------------------------|
|------------------------------------------------------------------------------|
|------------------------------------------------------------------------------|
|------------------------------------------------------------------------------|
 

|-20r17-20r17-20r17-20b22~r----------------------------------------------------|
|-----------------------------/15-13-------------------------------------------|
|------------------------------------14---12p10-12-12-------10-----------------|
|-----------------------------------------------------10-12----12-------10-12~-|
|-----------------------------------------------------------------10/12--------|
|------------------------------------------------------------------------------|
 

|-17r15b17~--17r15-13---15b16-15~--15p13h15p13h15p13----13h15p13---------------|
|----------------------------------------------------15----------15p13h15p13---|
|------------------------------------------------------------------------------|
|------------------------------------------------------------------------------|
|------------------------------------------------------------------------------|
|------------------------------------------------------------------------------|
 

|------------------------------------------------------------------------------|
|------------------------------------------------------------------------------|
|-14p12h14p12-13b--------------------------------------------------------------|
|------------------------------------------------------------------------------|
|------------------------------------------------------------------------------|
|------------------------------------------------------------------------------|


Share "Baker Street Solo" by Gerry Rafferty


TOP 10 TABS

FRESH NEW TABS

ALL ARTISTS
artist wiki

mp3bear.com
song lyrics / contact us / privacy policy / tabspace toolbar
Copyright 2004 - 2014 TabSpace.com - All Rights Reserved.
song: baker street solo guitar tabs by gerry rafferty

0.01