:: Guitar & Bass Tabs Make Home Page
A B C D E F G H I J K L M N O P Q R S T U V W X Y Z #

  for    

On TABSPACE
Info About This Tab
Artist: Walt Disney
Tab Type: Guitar
Difficulty: intermediate
Rate This Tab!
A know a tab for this song is already out there. But some are terribly wrong and some of 
are silly mistakes.. there may well be some in this... but it's best I can do.

I've tabbed out the piano version and it sounds good and the chords are below if prefered.

E|------------------------------------------------------|
B|------------------------------------------------------|
G|-----5-9-8-9-8-5--5-7-5-7-5-7-5----5-5-9-14-12-10-9-7-|
D|5-7-----------------------------7-5-5-----------------|
A|------------------------------------------------------|
E|------------------------------------------------------|


Break part...

E|-------------------------------------------------------------------|
B|8-10-8-10-8-10-8-5-------------------------------------------------|
G|-------------------5-7-5-7-5-7-5---5-5-7-9-12-9-12-9-12-9---------5|
D|---------------------------------7------------------------9---7-5--|
A|-------------------------------------------------------------------|
E|-------------------------------------------------------------------|

CHORDS
******

Look for the [G]bare necessi[G7]ties, the [C]simple bare ne[C7]cessities
For[G]get about your [E7]worry and your [A7]strife [D7]
I mean the [G]bare necessi[G7]ties or [C]Mother Nature's [C7]recipes
That [G]bring the [E7]bare ne[A7]cessi[D7]ties of [G]life


Wherever I [D7]wander, wherever I [G]roam, I couldn't be [D7]fonder of my big [G]home[G7]
The bees are [C]buzzin' in the [Cm]tree to make some [G]honey just for [A7]me
[A7]You look under the rocks and plants
And tak[D7]e a glance at the fancy ants, and maybe [G]try a [E7]few
The bare ne[A7]cessities of [D7]life will come to [G]you, [D7]they'll come to [G]you


Share "Bare Necessities" by Walt Disney


TOP 10 TABS

FRESH NEW TABS

ALL ARTISTS
artist wiki

mp3bear.com
TabSpace.com / contact us / privacy policy / tabspace toolbar
Copyright 2004 - 2016 TabSpace.com - All Rights Reserved.
song: bare necessities guitar tabs by walt disney

0.006