:: Guitar & Bass Tabs Make Home Page
A B C D E F G H I J K L M N O P Q R S T U V W X Y Z #

  for    

On TABSPACE
Info About This Tab
Artist: 30 Seconds To Mars
Tab Type: Bass
Rate This Tab!
-------------------------------------------------------------------------------
			     Battle of One- 30 Seconds to Mars
-------------------------------------------------------------------------------

Tabbed By : Silence
e-mail: eragon546@yahoo.com

Tuning: Standard

Key: F

First of all, this is an epic song to listen with headphones with the volume all the way 
 Also, this is my first tab, so feel free to fix it if wrong.  That is all.


Intro and verse and solo and bridge
The timing is a little off, but you can get it pretty easily.  At the end of the bridge, 
does a little walkdown.  I can't quite get that to sound perfect, but simply walking 
the scale seems to work fine.
G|-------------------------------------------------------------------|
D|-------------x7--1-1-1-1-1-1-------------x7-------------1-1-1-3-3-3|
A|-------3-3-3-----------------------3-3-3----1-1-1-3-3-3------------|
E|-1-1-1-----------------------1-1-1---------------------------------|


Chorus
G|-------------------------------|
D|-------------------------------|
A|0-0-0-0-0-0-0-0-1-1-1-1-1-1-1-1|
E|-------------------------------|

Postchorus has no bass

Ending
G|----------------------------------------------------------|
D|----------------------------------------------------------|
A|--------------------------------1--1-1--1--1-1--3--3--3--3|
E|-1--1-1--1--1-1--3--3-3--3--3-3---------------------------|


| /  slide up
| \  slide down
| h  hammer-on
| p  pull-off
| ~  vibrato
| +  harmonic
| x  Mute note
===============================================================================


Share "Battle Of One" by 30 Seconds To Mars


TOP 10 TABS

FRESH NEW TABS

ALL ARTISTS
artist wiki

mp3bear.com
song lyrics / contact us / privacy policy / tabspace toolbar
Copyright 2004 - 2014 TabSpace.com - All Rights Reserved.
song: battle of one bass tabs by 30 seconds to mars

0.045