:: Guitar & Bass Tabs Make Home Page
A B C D E F G H I J K L M N O P Q R S T U V W X Y Z #

  for    

On TABSPACE
Info About This Tab
Artist: Daphne Loves Derby
Tab Type: Bass
Rate This Tab!
New Song (Bedroom Demo) by Daphne Loves Derby
Bass Tab

Tunning: half-step down

Intro: Mute

Verse 1: Mute

Chorus 1:  
(Chord roots)
G[-----------------------------------------------------------------]
D[-----------------------------------------------------------------]   
A[-3-3-3-3-3-3-3-0-----------------2-2-2-2-2-2-2-2-2-2-2-2-2-2-2-2-]   x2
E[-----------------3-3-3-3-3-3-3-0---------------------------------]  

G[-----------------------------------------------------------------]
D[-----------------------------------------------------------------]
A[-3-3-3-3-3-3-3-3-----------------3-3-3-3-3-3-3-3-----------------]
E[-----------------0-0-0-0-0-0-0-0-----------------0-0-0-0-0-0-0-0-]

end of chorus ("on my own")
G[----------]
D[----------]
A[--0---2-3-]
E[----------]

Verse 2: 

G[---------------------------------------------------]
D[------9-7-5----------------------------------------]
A[-0-0-------------7-9-10--5-5---5-5-5--5-5-5---5--5-]  x4
E[-------------0-0-----------------------------------]

Chorus 2:

G[-----------------------------------------------------------------]
D[-----------------------------------------------------------------]   
A[-3-3-3-3-3-3-3-0-----------------2-2-2-2-2-2-2-2-2-2-2-2-2-2-2-2-]   x2
E[-----------------3-3-3-3-3-3-3-0---------------------------------]  

G[-------------------------------------------------------------------]
D[-------------------------------------------------------------------]
A[-3-3-3-5-5-5-7-7-------------------3-3-3-2-2-2-0-0-----------------]  
E[-----------------7-7-7-8-8-8-10-10-----------------0-0-0-2-2-2-3-3-]   

end of chorus ("on my own")
G[----------]
D[----------]
A[--0---2-3-]
E[----------]


Bridge: 

G[------------------------|-----------------------------]
D[------------------------|-----------------------------]
A[------------------------|-----------------0-----4-----]
E[-12----3----9----8------|---0-----2-3-----------------]
  "hey...    ...everthing"   "hey....         ...storm.."

Chorus 3:

Acoustic Only for "can i just hold on to you, tonight?" 

Then:
G[-----------------------------------------------------------------]
D[-----------------------------------------------------------------]   
A[-3-3-3-3-3-3-3-0-----------------2-2-2-2-2-2-2-2-2-2-2-2-2-2-2-2-]   x3
E[-----------------3-3-3-3-3-3-3-0---------------------------------] 

G[-------------------------------------------------------------------]
D[-------------------------------------------------------------------]
A[-3-3-3-5-5-5-7-7-------------------3-3-3-2-2-2-0-0-----------------]  
E[-----------------7-7-7-8-8-8-10-10-----------------0-0-0-2-2-2-3-3-]  

G[-----------------------------]
D[-----------------------------]
A[--0---2-3------0---5--7-(5)--]  
E[-----------------------------]
"on my own.......on  my own."

* the last note in ( ) isn't in the recording, but it sounds good with it. 

Any and all questions/comments/concerns/complaints are welcome.



Share "Bedroom" by Daphne Loves Derby


TOP 10 TABS

FRESH NEW TABS

ALL ARTISTS
artist wiki

mp3bear.com
song lyrics / contact us / privacy policy / tabspace toolbar
Copyright 2004 - 2014 TabSpace.com - All Rights Reserved.
song: bedroom bass tabs by daphne loves derby

0.012