:: Guitar & Bass Tabs Make Home Page
A B C D E F G H I J K L M N O P Q R S T U V W X Y Z #

  for    

On TABSPACE
Info About This Tab
Artist: Fear
Tab Type: Guitar
Difficulty: intermediate
Rate This Tab!
my baby...

|----------------------------------------------------------------------------------------|
|------9---------------------------------------------------------------------------------|
|-7b---9---7b-7b-7bf-5h7p5-5b--5h7p5---5----------------------------------------------7/-|
|------------------------------------7---7-5h7p5---5----------------------------------7/-|
|------------------------------------------------7---7-5h7p5---5h7p5---5h7p5--3h5-3b--5/-|
|------------------------------------------------------------8-------8-------------------|


theres a sin and a whole lot of sin...

|--------------------------------------------------------------------------------------|
|-----8bf~~~~-------8bf~~~~---9b----------------13p10-13p10-13p10--15b--12h15p12----12-|
|--------------------------------9p7-9-9-9-9p7-----------------------------------14----|
|-7p5-----------7p5--------------------------------------------------------------------|
|--------------------------------------------------------------------------------------|
|--------------------------------------------------------------------------------------|

|-----------------------------------------------------------------------------------------|
|-----------------------------------------------------------------------------------------|
|-14-12h14p12----12-----------------------------------------------------------------------|
|-------------14----14-12h14p12----12-----------------------------------------------------|
|-------------------------------14----14-12h14p12-10h12p10-9h10p9-7h9p7-5h7p5-4h5p4-5h7p5-|
|-----------------------------------------------------------------------------------------|

|--------------------------------------------------------------------------|
|--------------------------------------------------------------------------|
|-------------------------4h5p4-5-7-5-7-5-7-5-7-5-7-5-7-5-7-5-7-5-7-5-7-5/-|
|-------4h5p4-5h7p5-7h9p7--------------------------------------------------|
|-7h9p7--------------------------------------------------------------------|
|--------------------------------------------------------------------------|

verse
|----------------------------------|
|----------------------------------|
|----------------------------------|
|------------------7-7-7-7-7-7-7-7-|
|-7-7-7-7-7-7-7-7--5-5-5-5-5-5-5-5-|
|-5-5-5-5-5-5-5-5------------------|


  beef beef beef beef beloney
|-------------------------|
|-------------------------|
|-------------------------|
|-----------7--7--7--7-7-7|
|-7--7--7---5--5--5--5-5-5|
|-5--5--5-----------------|

|--------------5---------------------------------------------5---------------------------|
|------------5---5-8-5h7p5---5----------------5------------5---5-8p5--5h8p5---5---8------|
|-----5---7b---------------7---7-5h7p5---5-5b---7p5---5-7b------------------7---7---7~~~-|
|-5h7---7------------------------------7------------7------------------------------------|
|----------------------------------------------------------------------------------------|
|----------------------------------------------------------------------------------------|

|------------------------------------------------------------------------------------17b-|
|--------------------------------------------------15-18-18b-18p15-18p15-------15h18-----|
|------------------------------------------------------------------------17-17-----------|
|----------------------------------------------------------------------------------------|
|-0-0-2-2-3-3-4-4-4-4-5-5-5-5-6-6-6-6-7-7-7-7-7-7----------------------------------------|
|----------------------------------------------------------------------------------------|


|-------------------------------------------------------------------------5--------------|
|-18-15-15-18-15-15-18--20p17-20-17~~~~---------------------------------5----8p5-7p5---5-|
|---------------------------------------19-17-19-17~~~~--17/-/17---5h7b--------------7---|
|----------------------------------------------------------------------------------------|
|----------------------------------------------------------------------------------------|
|----------------------------------------------------------------------------------------|

|-----------------------------------------|
|-----------------------------------------|
|-7-5h7p5---5-----------------------------|
|---------7---7/--0-----------------------|
|--------------------2/7/0----------------|
|-----------------------------------------|

verse
|----------------------------------|
|----------------------------------|
|----------------------------------|
|------------------7-7-7-7-7-7-7-7-|
|-7-7-7-7-7-7-7-7--5-5-5-5-5-5-5-5-|
|-5-5-5-5-5-5-5-5------------------|


  beef beef beef beef beloney
|-------------------------|
|-------------------------|
|-------------------------|
|-----------7--7--7--7-7-7|
|-7--7--7---5--5--5--5-5-5|
|-5--5--5-----------------|

|------------------------|
|------------------------|
|------------------------|
|------------------------|
|-7----------------------|
|-5----------------------|


Share "Beef Bologna" by Fear


TOP 10 TABS

FRESH NEW TABS

ALL ARTISTS
artist wiki

mp3bear.com
song lyrics / contact us / privacy policy / tabspace toolbar
Copyright 2004 - 2014 TabSpace.com - All Rights Reserved.
song: beef bologna guitar tabs by fear

0.01