:: Guitar & Bass Tabs Make Home Page
A B C D E F G H I J K L M N O P Q R S T U V W X Y Z #

  for    

On TABSPACE
Info About This Tab
Artist: Panic At The Disco
Tab Type: Guitar
Rate This Tab!
-------------------------------------------------------------------------------    
            BEHIND THE SEA (ALTERNATE VERSION) - Panic at the Disco
-------------------------------------------------------------------------------
Tabbed by: Olivia Weise (MarshmallowPies)
Email: bl4ckp34rl@att.net


Capo on seventh fret

Tuning: EADGBe

e|---2-------0-------0----------------------2--------0--------0---------|
B|-------3-------3-------------------------------3--------3-------------|
G|----------------------------------------------------------------------|
D|---0--------------------------------------0---------------------------|
A|----------------------------------------------------------------------|
E|----------------------------------------------------------------------|

e|---2-------0-------0----------------------2--------0--------0----------|
B|-------3-------3-------------------------------3--------3--------------|
G|-----------------------------------------------------------------------|
D|---0--------------------------------------0----------------------------|
A|-----------------------------------------------------------------------|
E|-----------------------------------------------------------------------|
      Our daydream spills from my corked head           Breaks free of my

e|---------------0-------------------------------------------------------|
B|---3---------------3---------------------3--------3--------------------|
G|---------4--------------4---------------------0------------------------|
D|----------------------------4-------------------------0----------------|
A|---2-------------------------------------------------------------------|
E|-----------------------------------------3-----------------------------|
    wooden neck                            Left a nod over   


e|-----------------------------------------------------------------------|
B|---3----------3--------------------------------------------------------|
G|---------3---------3---------------------------------------------------|
D|------------------------5----------------------------------------------|
A|-----------------------------------------------------------------------|
E|---3-------------------------------------------------------------------|
      sleeping waves


e|---2-------0-------0----------------------2--------0--------0----------|
B|-------3-------3-------------------------------3--------3--------------|
G|-----------------------------------------------------------------------|
D|---0--------------------------------------0----------------------------|
A|-----------------------------------------------------------------------|
E|-----------------------------------------------------------------------|
      Like bobbing bait for bathing cod               Floating flocks of

e|------------0----------------------------------------------------------|
B|---3------------3-----------------------3--------3---------------------|
G|---------4----------4------------------------0-------------------------|
D|-----------------------4----------------------------0------------------|
A|---2-------------------------------------------------------------------|
E|----------------------------------------3------------------------------|
     candled swans                  Slowly drift


e|-----------------------------------------------------------------------|
B|---3----------3--------------------------------------------------------|
G|---------3---------3---------------------------------------------------|
D|------------------------5----------------------------------------------|
A|-----------------------------------------------------------------------|
E|---3-------------------------------------------------------------------|
      across wax ponds


e|--------5--------------------------------------------------------------|
B|--------------3------------3----------------------2--------------------|
G|--------2-----------------------4----------------------2---------------|
D|---0-----------------------4---------4----------------------4----------|
A|----------------------2---------------------------4--------------------|
E|---------------------------------------------2-------------------------|
       The men all played along to marching drums

e|-----------------------------------------------------------------------|
B|---------3-----------------------2-------------------------------------|
G|---------------4-----------------------2-------------------------------|
D|---------4----------4-----------------------4--------------------------|
A|---2-----------------------------4-------------------------------------|
E|----------------------------2------------------------------------------|
            And boy did they have fun 

e|---------2-------------------------------------0-----------------------|
B|-------------3--------------------2-----------------2-------3----------|
G|-----------------2----------------------2---------------2--------------|
D|---------0------------------------2---------2--------------------------|
A|---2-------------------------0-----------------------------------------|
E|-----------------------------------------------------------------------|
              Behind the sea                                       They sang,


e|--------5--------------------------------------------------------------|
B|--------------3------------3----------------------2--------------------|
G|--------2-----------------------4----------------------2---------------|
D|---0-----------------------4---------4----------------------4----------|
A|----------------------2---------------------------4--------------------|
E|---------------------------------------------2-------------------------|
       So our matching legs are marching clocks

e|-----------------------------------------------------------------------|
B|---------3-----------------------2-------------------------------------|
G|---------------4-----------------------2-------------------------------|
D|---------4----------4-----------------------4--------------------------|
A|---2-----------------------------4-------------------------------------|
E|----------------------------2------------------------------------------|
           And we're all too small  

e|---------2-------------------------------------0-----------------------|
B|-------------3--------------------2-----------------2-------3----------|
G|-----------------2----------------------2---------------2--------------|
D|---------0------------------------2---------2--------------------------|
A|---2-------------------------0-----------------------------------------|
E|-----------------------------------------------------------------------|        
            To talk to god                                     Yes, we're


e|--------2--------------------------------------------------------------|
B|--------------3------------3-----3----------------------2--------------|
G|--------2----------2------------------------------------2--------------|
D|---0----------------------------------------------------2--------------|
A|---------------------------2-----2----------------------0--------------|
E|-----------------------------------------------------------------------|
      all too smart                           To talk to god


e|---2-------0-------0----------------------2--------0--------0----------|
B|-------3-------3-------------------------------3--------3--------------|
G|-----------------------------------------------------------------------|
D|---0--------------------------------------0----------------------------|
A|-----------------------------------------------------------------------|
E|-----------------------------------------------------------------------|
          Toast the fine folks casting silver crumbs to us

e|---------------0-------------------------------------------------------|
B|---3--------------3---------------------3--------3---------------------|
G|---------4------------4---------------------0--------------------------|
D|--------------------------4-------------------------0------------------|
A|---2-------------------------------------------------------------------|
E|----------------------------------------3------------------------------|
      from the dock                      Jinxed things ringing


e|-----------------------------------------------------------------------|
B|---3---------3---------------------------------------------------------|
G|---------3--------3----------------------------------------------------|
D|-----------------------5-----------------------------------------------|
A|-----------------------------------------------------------------------|
E|---3-------------------------------------------------------------------|
     as they leak

e|---2-------0-------0----------------------2--------0--------0----------|
B|-------3-------3-------------------------------3--------3--------------|
G|-----------------------------------------------------------------------|
D|---0--------------------------------------0----------------------------|
A|-----------------------------------------------------------------------|
E|-----------------------------------------------------------------------|
   Through tiny cracks in the boardwalk Scarecrow now it's

e|-------------0---------------------------------------------------------|
B|---3-------------3---------------------3--------3----------------------|
G|---------4-----------4---------------------0---------------------------|
D|-------------------------4-------------------------0-------------------|
A|---2-------------------------------------------------------------------|
E|---------------------------------------3-------------------------------|
     time to hatch                       Sprouting suns and


e|-----------------------------------------------------------------------|
B|---3---------3---------------------------------------------------------|
G|--------3---------3----------------------------------------------------|
D|-----------------------5-----------------------------------------------|
A|-----------------------------------------------------------------------|
E|---3-------------------------------------------------------------------|
    ageless daughters


e|---2---------2-------2---------2---------2------2----------------------|
B|---------3--------3-----------------3-------3--------------------------|
G|---2--------------------3------2------------------3--------------------|
D|-----------------------------------------------------------------------|
A|-----------------------------------------------------------------------|
E|-----------------------------------------------------------------------|


e|-------------------0---------------------------------------------------|
B|--------1--------------1----------------------------0------------------|
G|-------------0--------------0--------------------2---------------------|
D|---------------------------------------------2-------------------------|
A|-----------------------------------------------------------------------|
E|-----------------------------------------------------------------------|
          Those watermelon smiles               Just can't ripen

e|----------------------------------------------------------------------|
B|-------------0------2------------------0--------------0------2--------|
G|--------2-----------2-------------2--------------2-----------2--------|
D|---2----------------2--------2--------------2----------------2--------|
A|----------------------------------------------------------------------|
E|----------------------------------------------------------------------|
           underwater          Just   can't   ripen     underwater

e|--------5-------------------------------------------------------------|
B|--------------3------------3----------------------2-------------------|
G|--------2-----------------------4----------------------2--------------|
D|---0-----------------------4---------4----------------------4---------|
A|----------------------2---------------------------4-------------------|
E|---------------------------------------------2------------------------|
       The men all played along to marching drums

e|---------------------------------2------------------------------------|
B|---------3----------------------------3-------------------------------|
G|---------------4---------------------------2--------------------------|
D|---------4----------4------------0------------------------------------|
A|---2------------------------------------------------------------------|
E|----------------------------2-----------------------------------------|
            And boy did they have fun 

e|--------------------------------------------------0-------------------|
B|---------3------------------------2--------------------2---------3----|
G|--------------4-------------------------2--------------------2--------|
D|---------4---------4--------------2---------2-------------------------|
A|---2-------------------------0----------------------------------------|
E|----------------------------------------------------------------------|
              Behind the sea                                       They sang,


e|--------5-------------------------------------------------------------|
B|--------------3------------3----------------------2-------------------|
G|--------2-----------------------4----------------------2--------------|
D|---0-----------------------4---------4----------------------4---------|
A|----------------------2---------------------------4-------------------|
E|---------------------------------------------2------------------------|
       So our matching legs are marching clocks

e|----------------------------------------------------------------------|
B|---------3-----------------------2------------------------------------|
G|---------------4-----------------------2------------------------------|
D|---------4----------4-----------------------4-------------------------|
A|---2-----------------------------4------------------------------------|
E|----------------------------2-----------------------------------------|
           And we're all too small  

e|---------5----------------------------------------0-------------------|
B|---------3------------------------2-------------------2--------3------|
G|--------------4-------------------------2-----------------2-----------|
D|-------------------4--------------2---------2-------------------------|
A|---2-------------------------0----------------------------------------|
E|----------------------------------------------------------------------|        
           To talk to god                                       Yeah, we're

 e|--------2---------------------------------------------------------0----------0--------|
B|--------------3------------------3---------------------2---------------2---------2----|
G|--------2----------2------------------4----------------------2------------------------|
D|---0-----------------------------4----------4----------2------------------------------|
A|---------------------------2-----------------------0----------------------------------|
E|--------------------------------------------------------------------------------------|
   all too smart to talk to god                                        Oh, we're all


e|--------2----------------------------------------------------------------|
B|--------------3------------3-----3----------------------2----------------|
G|--------2----------2------------------------------------2----------------|
D|---0----------------------------------------------------2----------------|
A|---------------------------2-----2----------------------0----------------|
E|-------------------------------------------------------------------------|
      all too smart                           To talk to god


===============================================================================


Share "Behind The Sea" by Panic At The Disco


TOP 10 TABS

FRESH NEW TABS

ALL ARTISTS
artist wiki

mp3bear.com
song lyrics / contact us / privacy policy / tabspace toolbar
Copyright 2004 - 2014 TabSpace.com - All Rights Reserved.
song: behind the sea guitar tabs by panic at the disco

0.009