:: Guitar & Bass Tabs Make Home Page
A B C D E F G H I J K L M N O P Q R S T U V W X Y Z #

  for    

On TABSPACE
Info About This Tab
Artist: Tokio Hotel
Tab Type: Guitar
Difficulty: novice
Rate This Tab!
Made By Dryndal - Polska

Intro:
E cis (x4)


E-----------------cis
-Es beginnt jeden Morgen,
---------------E
es klingelt um Sieben,
---------------cis
der Wecker und ich,
-----------------------E
bleib’n erst mal schön liegen,
-----------------cis------------------E
ich bin immer zu spät und im Sport 2. Wahl,
-------------------cis-----------------H
darum schreib ich „Fuck you“ auf jeden Siegerpokal,
E-------------------------cis
-ich will dich nur für ne Nacht,
--------------------E
und fühl mich gut dabei,
-----------------cis
dass es alles so wahr,
----------------------E
um auch noch schön zu sein,
------------------cis------------------C
und ich frag mich ob ich in den Himmel komm,
-------------------H
so überhaupt nicht fromm,


----------------A
Hey Teufel komm raus,
---------------E
ich hab dich gesehen,
-------------E2------------------------cis
und noch die Hoffnung du wirst mich verstehen,
------------------A----------------cis
Hey Teufel kannst du meine Beichte lesen,
-------------H-------------------E
und dann mit Gott nochmal drüber reden,



Ich bin leider ehrlich,
auch wo‘s nicht passt,
und seit meiner Beichte beim Pastor verhasst,
ich weis das geht gar nicht doch es lag auf der Hand,
und dann hab ich meinem Bruder,
die Freundin ausgespannt,
man hat mir jede Lüge,
schon mal geglaubt,
und in meine leeren,
Versprechen vertraut,
und ich frag mich ob ich in den Himmel komm,
so überhaupt nicht fromm,

Hey Teufel komm raus,
ich hab dich gesehen,
und noch die Hoffnung du wirst mich verstehen,
Hey Teufel kannst du meine Beichte lesen,
und dann mit Gott,
Hey Teufel komm raus,
ich hab dich gesehen,
und noch die Hoffnung du wirst mich verstehen,
Hey Teufel kannst du meine Beichte lesen,
-------------H-------------------A-------------------H
und dann mit Gott nochmal drüber reden,


A
Bitte seid nicht zu gemein,
---------H
gebt mir noch ne Chance - oder zwei,
-----fis-----------------------------A------------H
oder lasst mich wenigstens der Engel in der Hölle sein,


--------------A
Scha la la la la
--------------E
Scha la la la la
--------------E2
Scha la la la la
--------------CCCCCCCCCCCCCCCC
Scha la la la laaaaaaaaaaaaa

Pykanie:
Picking:
--Aadd2-----------E---------------E3--------------C-C-C-C-C-C-C-C-C-C-C-C-C-C-C-C
E|---------------|---------------|---------------|---------------|---------------|
B|------0--------|------9--------|------7--------|---------------|---------------|
G|----2-----2---2|----9-----9---9|----9-----9---9|5-5-5-5-5-5-5-5|5-5-5-5-5-5-5-5|
D|--2---------2--|--9---------9--|--9---------9--|5-5-5-5-5-5-5-5|5-5-5-5-5-5-5-5|
A|0--------------|7--------------|6--------------|3-3-3-3-3-3-3-3|3-3-3-3-3-3-3-3|
E|---------------|---------------|---------------|---------------|---------------|


Hey Teufel komm raus,
ich hab dich gesehen,
und noch die Hoffnung du wirst mich verstehen,
Hey Teufel kannst du meine Beichte lesen,
und dann mit Gott,
Hey Teufel komm raus,
ich hab dich gesehen,
und noch die Hoffnung du wirst mich verstehen,
Hey Teufel kannst du meine Beichte lesen,
-------------H-------------------E----E2
und dann mit Gott nochmal drüber reden,


-------------------E---E2
Und hast du keinen Bock
-------------E---E2
dann lass es eben,
E------------------E2
-kannst ja mal überlegen

Dziwne chwyty:
Strange chords:
Aadd2
E|-0-|
B|-0-|
G|-2-|
D|-2-|
A|-0-|
E|-x-|

E2
E|-x-|
B|-9-|
G|-9-|
D|-9-|
A|-6-|
E|-x-|

E3
E|-x-|
B|-7-|
G|-9-|
D|-9-|
A|-6-|
E|-x-|

Nie wiem jak się te odmiany E nazywają dlatego piszę E2 i E3 :D
I dont' know how these E-chords are named so I wrote E2 & E3 :D

To na tyle :D
Thats that :D


Share "Beichte" by Tokio Hotel


TOP 10 TABS

FRESH NEW TABS

ALL ARTISTS
artist wiki

mp3bear.com
song lyrics / contact us / privacy policy / tabspace toolbar
Copyright © 2004 - 2014 TabSpace.com - All Rights Reserved.
song: beichte guitar tabs by tokio hotel

0.014