:: Guitar & Bass Tabs Make Home Page
A B C D E F G H I J K L M N O P Q R S T U V W X Y Z #

  for    

On TABSPACE
Info About This Tab
Artist: Tokio Hotel
Tab Type: Guitar
Difficulty: novice
Rate This Tab!
Übers Ende Der Welt


Intro 
---------33333333-------|
---------33333333-------|
-777-444-44444444-------|
-777-444-55555555-------| 
-777-444-55555555-------|
-000-000-33333333-------|

---------333-5555------|
---------333-5555------|
-777-444-444-6666------|
-777-444-555-7777------|
-777-444-555-7777------|
-000-000-333-5555------|

Verse
---------33333333-------|
---------33333333-------|
-777-444-44444444-------|
-777-444-55555555-------| 
-777-444-55555555-------|
-000-000-33333333-------|

---------333-5555------|
---------333-5555------|
-777-444-444-6666------|
-777-444-555-7777------|
-777-444-555-7777------|
-000-000-333-5555------|

---------333-5555-2222222-3333333------|
---------333-5555-2222222-3333333------|
-777-444-444-6666-3333333-4444444------|
-777-444-555-7777-4444444-5555555------| x2
-777-444-555-7777-4444444-5555555------|
-000-000-333-5555-2222222-3333333------|

PreChorus
-----------------------|
-----------------------|
-----------------------|
-222-444-22222222------|  x2
-333-555-22222222------|
-333-555---------------|

Chorus 

A,H,G,A
A,H,G,H,A
H,G,A,H,G,A,F#      

or

-55-77-33-55-55-77-5-7-3------------------------|
-55-77-33-55-55-77-5-7-3------------------------|
-66-88-44-66-66-88-6-8-4------------------------|
-77-99-55-77-77-99-7-9-5------------------------|
-77-99-55-77-77-99-7-9-5------------------------|
-55-77-33-55-55-77-5-7-3------------------------|

-7777777-333333-5-7777777-333333-55555555-2222--|
-7777777-333333-5-7777777-333333-55555555-2222--|
-8888888-444444-6-8888888-444444-66666666-3333--|
-9999999-555555-7-9999999-555555-77777777-4444--|
-9999999-555555-7-9999999-555555-77777777-4444--|
-7777777-333333-5-7777777-333333-55555555-2222--|

Bridge

-22-33-55-222-33------------|
-22-33-55-222-33------------|
-33-44-66-333-44------------|
-44-55-77-444-55------------|
-44-55-77-444-55------------|
-22-33-55-222-33------------|

Enjoy!!!!


Share "Bers Ende Der Welt" by Tokio Hotel


TOP 10 TABS

FRESH NEW TABS

ALL ARTISTS
artist wiki

mp3bear.com
song lyrics / contact us / privacy policy / tabspace toolbar
Copyright © 2004 - 2014 TabSpace.com - All Rights Reserved.
song: bers ende der welt guitar tabs by tokio hotel

0.012