:: Guitar & Bass Tabs Make Home Page
A B C D E F G H I J K L M N O P Q R S T U V W X Y Z #

  for    

On TABSPACE
Info About This Tab
Artist: Hard-fi
Tab Type: Guitar
Rate This Tab!
Hi this is my first tab so i hope you enjoy it!!! :)

Main Riff

e------------------------|
B------------------------|
G------------------------|
D---------------4--------|
A--4----44-6------6------|
E------------4-----------|

Pre-Chorus
Let these notes ring

e----------------------------------------|
B----------------------------------------|
G----------------------------------------|
D--------------6-------------------------|
A--4-----6-----------6-----4------6------|
E----------------------------------------|

Chorus

e----------------------------------------------|
B----------------------------------------------|
G-------------------------1-1-1-1--------------|
D-11-11-11-11---7-7-7-7---2-2-2-2---4-4-4-4----|
A-11-11-11-11---7-7-7-7---2-2-2-2---4-4-4-4----|
E-9--9--9--9----5-5-5-5---0-0-0-0---2-2-2-2----|

Thats the basic chorus but i play it by stumming the notes it sounds better!
Feel free to jazz in up as much as you want! But those are the basic notes.

Bridge

e-------------------------------------|
B-------------------------------------|
G-------------------------------------|
D---11-11---7-7---4-4---6-6-x-6-------|
A---11-11---7-7---4-4---6-6-x-6-------|
E---9--9----5-5---2-2---4-4-x-4-------|

Main Riff x16
Pre-chorus x1
Chorus x3
Main Riff x10
Pre-chorus x1
Chorus x3
Bridge x5
Pre-chorus x1
Chorus x5
Main Riff x4

There you have it hope you lyk it if you have any complaints or changes ud lyk to make 
e-mail me at crazyjoeinit@aol.com!


Share "Better Do Better" by Hard-fi


TOP 10 TABS

FRESH NEW TABS

ALL ARTISTS
artist wiki

mp3bear.com
song lyrics / contact us / privacy policy / tabspace toolbar
Copyright 2004 - 2014 TabSpace.com - All Rights Reserved.
song: better do better guitar tabs by hard-fi

0.006