:: Guitar & Bass Tabs Make Home Page
A B C D E F G H I J K L M N O P Q R S T U V W X Y Z #

  for    

On TABSPACE
Info About This Tab
Artist: Margot And The Nuclear So And Sos
Tab Type: Guitar
Difficulty: novice
Rate This Tab!
-----------------------------------------------------------------------
                Birds - Margot and the Nuclear So and So's
-----------------------------------------------------------------------
This is my interpretation of the song "Birds" by Margot and the Nuclear So and So's. 
off of their album "Buzzard."
I honestly don't know what the interlude between the final two choruses is because of 
layers added through it.
So I will need some suggestions on what it sounds like.
For any other suggestions just send me a message in the comments section of the tab
and I'll try and correct the tab. Rate and Comment please!

Tabbed by: Jon Green
Tuning: Standard EADGBe

Intro:
e|--------------------------|
B|--------------------------|
G|--------------------------|
D|--------0-2-------0-2-----| x8
A|----0-2-------0-2---------|
E|--3---------3-------------|


e|--------------------------|
B|--------------------------|
G|--------------------------|
D|--------0-2--------0-2----| x4
A|----0-2--------0-2--------|
E|--3----------3------------|
Nobody know the names of those birds so why would you want me to why would you want me

e|---------------------------|
B|---------------------------|
G|--------/2-0~-------/2-0~--|
D|------2-----------2--------|
A|----2-----------2----------|
E|--0-----------0------------|
Why would you need me, would you feed me?


e|--------------------------|
B|--------------------------|
G|--------------------------|
D|--------0-2--------0-2----|  x6
A|----0-2--------0-2--------|
E|--3----------3------------|
Nobody know the names of those rats so why would you want me to why would you want me

e|---------------------------|
B|---------------------------|
G|--------/2-0~-------/2-0~--|
D|------2-----------2--------|
A|----2-----------2----------|
E|--0-----------0------------|
Why would you need me? Would you feed me?

e|--------0---------0------|
B|----------1---------1----|
G|------2---------2--------|
D|----2---------2----------|
A|--0---------0------------|
E|-------------------------|
The whole world is burning up from the ceiling

e|--------------------------|
B|--------------------------|
G|--------------------------|
D|--------0-2--------0-2----|  x6
A|----0-2--------0-2--------|
E|--3----------3------------|
Nobody know the names of those dogs so why would you want me to why would you want me

e|---------------------------|
B|---------------------------|
G|--------/2-0~-------/2-0~--|
D|------2-----------2--------|
A|----2-----------2----------|
E|--0-----------0------------|
Why would you need me? Would you feed me?

e|--------0---------0------|
B|----------1---------1----|
G|------2---------2--------|
D|----2---------2----------|
A|--0---------0------------|
E|-------------------------|
The whole world is burning up from the ceiling


Chorus:
e|----x-x----------x-x----------x-x----------x-x--------|
B|----x-x----------x-x----------x-x----------x-x--------|
G|----x-x----------x-x----------x-x----------x-x--------|
D|-9-9x-x--9-9--9-9x-x--9-9--9-9x-x--9-9--9-9x-x--9--9--|
A|-9-9x-x--9-9--9-9x-x--9-9--9-9x-x--9-9--9-9x-x--9--9--|
E|-7-7x-x--7-7--7-7x-x--7-7--7-7x-x--7-7--7-7x-x--7--7--|

Let's have a party!


e|----x-x----------x-x----------x-x----------x-x-----------|
B|----x-x----------x-x----------x-x----------x-x-----------|
G|----x-x----------x-x----------x-x----------x-x-----------|
D|-5-5x-x--5-5--5-5x-x--5-5--5-5x-x--5-5--5-5x-x--5--5-----|
A|-5-5x-x--5-5--5-5x-x--5-5--5-5x-x--5-5--5-5x-x--5--5-----|
E|-3-3x-x--3-3--3-3x-x--3-3--3-3x-x--3-3--3-3x-x--3--3--\2-|

Let's have a party!

e|----x-x----------x-x----------x-x----------x-x--------|
B|----x-x----------x-x----------x-x----------x-x--------|
G|----x-x----------x-x----------x-x----------x-x--------|
D|-2-2x-x--2-2--2-2x-x--2-2--7-7x-x--7-7--7-7x-x--7--7--|
A|-2-2x-x--2-2--2-2x-x--2-2--7-7x-x--7-7--7-7x-x--7--7--|
E|-0-0x-x--0-0--0-0x-x--0-0--5-5x-x--5-5--5-5x-x--5--5--|

Let's have a party!

Verse 2:
e|--------------------------|
B|--------------------------|
G|--------------------------|
D|--------0-2--------0-2----|  x4
A|----0-2--------0-2--------|
E|--3----------3------------|


e|--------------------------|
B|--------------------------|
G|--------------------------|
D|--------0-2--------0-2----|  x4
A|----0-2--------0-2--------|
E|--3----------3------------|
You dance like a frog whenever you dance, your friends they can't stand you nobody can.

e|---------------------------|
B|---------------------------|
G|--------/2-0~-------/2-0~--|
D|------2-----------2--------|
A|----2-----------2----------|
E|--0-----------0------------|
And I am afraid that...

e|--------0---------0------|
B|----------1---------1----|
G|------2---------2--------|
D|----2---------2----------|
A|--0---------0------------|
E|-------------------------|
The whole world is closer to moral foreclosure.


e|--------------------------|
B|--------------------------|
G|--------------------------|
D|--------0-2--------0-2----|  x4
A|----0-2--------0-2--------|
E|--3----------3------------|
You dance like a jerk whenever you dance, your mother can't stand you nobody can.

e|---------------------------|
B|---------------------------|
G|--------/2-0~-------/2-0~--|
D|------2-----------2--------|
A|----2-----------2----------|
E|--0-----------0------------|
And I am afraid that...

e|--------0---------0------|
B|----------1---------1----|
G|------2---------2--------|
D|----2---------2----------|
A|--0---------0------------|
E|-------------------------|
What I am proposing, is a total explosion


Chorus:
e|----x-x----------x-x----------x-x----------x-x--------|
B|----x-x----------x-x----------x-x----------x-x--------|
G|----x-x----------x-x----------x-x----------x-x--------|
D|-9-9x-x--9-9--9-9x-x--9-9--9-9x-x--9-9--9-9x-x--9--9--|
A|-9-9x-x--9-9--9-9x-x--9-9--9-9x-x--9-9--9-9x-x--9--9--|
E|-7-7x-x--7-7--7-7x-x--7-7--7-7x-x--7-7--7-7x-x--7--7--|

Let's have a baby!


e|----x-x----------x-x----------x-x----------x-x-----------|
B|----x-x----------x-x----------x-x----------x-x-----------|
G|----x-x----------x-x----------x-x----------x-x-----------|
D|-5-5x-x--5-5--5-5x-x--5-5--5-5x-x--5-5--5-5x-x--5--5-----|
A|-5-5x-x--5-5--5-5x-x--5-5--5-5x-x--5-5--5-5x-x--5--5-----|
E|-3-3x-x--3-3--3-3x-x--3-3--3-3x-x--3-3--3-3x-x--3--3--\2-|

Let's have a baby!

e|----x-x----------x-x----------x-x----------x-x--------|
B|----x-x----------x-x----------x-x----------x-x--------|
G|----x-x----------x-x----------x-x----------x-x--------|
D|-2-2x-x--2-2--2-2x-x--2-2--7-7x-x--7-7--7-7x-x--7--7--|
A|-2-2x-x--2-2--2-2x-x--2-2--7-7x-x--7-7--7-7x-x--7--7--|
E|-0-0x-x--0-0--0-0x-x--0-0--5-5x-x--5-5--5-5x-x--5--5--|

Let's have a baby!

Interlude (I really can't tell what is played so I just play the intro leading into the 
chorus. If you can tab it out that
would be great and ill add it to this tab.)

e|--------------------------|
B|--------------------------|
G|--------------------------|
D|--------0-2-------0-2-----|
A|----0-2-------0-2---------|
E|--3---------3-------------|


Chorus:
e|----x-x----------x-x----------x-x----------x-x--------|
B|----x-x----------x-x----------x-x----------x-x--------|
G|----x-x----------x-x----------x-x----------x-x--------|
D|-9-9x-x--9-9--9-9x-x--9-9--9-9x-x--9-9--9-9x-x--9--9--|
A|-9-9x-x--9-9--9-9x-x--9-9--9-9x-x--9-9--9-9x-x--9--9--|
E|-7-7x-x--7-7--7-7x-x--7-7--7-7x-x--7-7--7-7x-x--7--7--|

Let's make it evil!


e|----x-x----------x-x----------x-x----------x-x-----------|
B|----x-x----------x-x----------x-x----------x-x-----------|
G|----x-x----------x-x----------x-x----------x-x-----------|
D|-5-5x-x--5-5--5-5x-x--5-5--5-5x-x--5-5--5-5x-x--5--5-----|
A|-5-5x-x--5-5--5-5x-x--5-5--5-5x-x--5-5--5-5x-x--5--5-----|
E|-3-3x-x--3-3--3-3x-x--3-3--3-3x-x--3-3--3-3x-x--3--3--\2-|

Let's make it evil!

e|----x-x----------x-x----------x-x----------x-x--------|
B|----x-x----------x-x----------x-x----------x-x--------|
G|----x-x----------x-x----------x-x----------x-x--------|
D|-2-2x-x--2-2--2-2x-x--2-2--7-7x-x--7-7--7-7x-x--7--7--|
A|-2-2x-x--2-2--2-2x-x--2-2--7-7x-x--7-7--7-7x-x--7--7--|
E|-0-0x-x--0-0--0-0x-x--0-0--5-5x-x--5-5--5-5x-x--5--5--|

Let's make it evil!

************************************

| /   slide up
| \   slide down
| h   hammer-on
| p   pull-off
| ~   vibrato
| +   harmonic
| x   Mute note
| b   Bend
| pb  Pre-bend
| br  Bend release
| pbr Pre-bend release
| brb Bend release bend

************************************


Share "Birds" by Margot And The Nuclear So And Sos


TOP 10 TABS

FRESH NEW TABS

ALL ARTISTS
artist wiki

mp3bear.com
song lyrics / contact us / privacy policy / tabspace toolbar
Copyright 2004 - 2014 TabSpace.com - All Rights Reserved.
song: birds guitar tabs by margot and the nuclear so and sos

0.027