:: Guitar & Bass Tabs Make Home Page
A B C D E F G H I J K L M N O P Q R S T U V W X Y Z #

  for    

On TABSPACE
Info About This Tab
Artist: Wasp
Tab Type: Bass
Difficulty: intermediate
Rate This Tab!
Artist:W.A.S.P.
Song:Blind in Texas
Album:The Last Command
Bassist:Blackie Lawless
Tabber:Dev Fuld

This is an awesome tune by W.A.S.P. "Hey dude, let's party!"

Key:
x = times a number
* = let it ring

Intro
Gb:--------------|--------------|--------------|--------------|--|
Db:--------------|--------------|--------------|--------------|--|
Ab:---------5-5-5|---------5-5-5|---------5-5-5|---------5-5-5|--|
Eb:5*-3-3-3------|5*-3-3-3------|5*-3-3-3------|5*-3-3-3------|0*|

Verse
Gb:--------------------------|--------------------------|
Db:--------------------------|--------------------------|
Ab:-----5x16------7x8-5x8----|-----5x16------7x8-5x8----|
Eb:5x32------5x16--------5x16|5x32------5x16---------5x5|

Chorus
Gb:------------|------------|------------|-----------|
Db:------------|------------|------------|-----------|
Ab:----5x8-----|----5x8-----|----5x8-----|----5x8----|
Eb:3x8-----5x16|5x8-----5x16|3x8-----5x16|3x8-----0x8|

Verse

Chorus

Bridge
Gb:-----------------|
Db:-----------------|
Ab:-----------------|
Eb:0xthe whole thing|

Solo
Gb:---------|---------|---------|--------|
Db:---------|---------|---------|--------|
Ab:5x16-----|5x16-----|5x16-7x16|5x16----|
Eb:-----0x16|-----0x16|---------|-----5x9|

Verse

Bass and drum part
Gb:-------------------------------|
Db:-------------------------------|
Ab:--------5-5-555----------------|
Eb:3-3-333---------5-5-555-555-555|

Chorus

Intro

That's it. It's an awesome tune, so play it with some attitude. It is in the correct order 
so I made it easier for you, not like it was hard. Any questions or comments, e-mail me 
at rocklvson@yahoo.com



Share "Blind In Texas" by Wasp


TOP 10 TABS

FRESH NEW TABS

ALL ARTISTS
artist wiki

mp3bear.com
song lyrics / contact us / privacy policy / tabspace toolbar
Copyright 2004 - 2014 TabSpace.com - All Rights Reserved.
song: blind in texas bass tabs by wasp

0.014