:: Guitar & Bass Tabs Make Home Page
A B C D E F G H I J K L M N O P Q R S T U V W X Y Z #

  for    

On TABSPACE
Info About This Tab
Artist: Misc Television
Tab Type: Guitar
Rate This Tab!
Tab for the classic UK version of Blockbusters (I'll have a "P" please Bob!), 
played at about 92BPM or so.

Track 1
     H        H           E.  E.  E  E.  E.   E   
E||--------------------|----------5------8---10--|
B||-----------8--------|--6----------8-----------|
G||--5-----------------|------7------------------|
D||--------------------|-------------------------|
A||--------------------|-------------------------|
E||--------------------|-------------------------|


   S  S  S  E   E.   E   S  Q    S     S  S  S  E   E.   E   S  E   S  S  S  
|--12-12-10-12--10---12--13-10---L--|--10-10----10-------10--15-13--12-------|
|-----------------------------------|--------13-----13-----------------15-13-|
|-----------------------------------|----------------------------------------|
|-----------------------------------|----------------------------------------|
|-----------------------------------|----------------------------------------|
|-----------------------------------|----------------------------------------|


   S  S  S  E   E.   E   S  E   E.      S  S  S  S H.            
|------------------------------------|---------------------------|
|--13-13-12-13--12---13--15-12--10---|--10-12-13-13--------------|
|------------------------------------|---------------------------|
|------------------------------------|---------------------------|
|------------------------------------|---------------------------|
|------------------------------------|---------------------------|


   S  S  S  E   E.   E   S  Q    S     S  S S  E  E.   E   S Q    S  
|--12-12-10-12--10---12--13-10---L--|--10-10-8-10--8---10--12-8---L--|
|-----------------------------------|--------------------------------|
|-----------------------------------|--------------------------------|
|-----------------------------------|--------------------------------|
|-----------------------------------|--------------------------------|
|-----------------------------------|--------------------------------|


   E.  E.   E   E.  E.  E      E.  E.   E   E.  E.   E   
|-------8---13--12---8------|-------8---13--10---8---10--|
|--10--------------------8--|--10------------------------|
|---------------------------|----------------------------|
|---------------------------|----------------------------|
|---------------------------|----------------------------|
|---------------------------|----------------------------|


   S  S  S  E   E.   E   S  E   E   S     H         H         
|--12-12-10-12--10---12--13-10---------|------------15--------|
|-------------------------------13--12-|--13------------------|
|--------------------------------------|----------------------|
|--------------------------------------|----------------------|
|--------------------------------------|----------------------|
|--------------------------------------|----------------------|


   E.   E.   E   S  S  S  S Q      
|--13--------17--20-20-20-20------||
|-------15------------------------||
|---------------------------------||
|---------------------------------||
|---------------------------------||
|---------------------------------||




Duration Legend
---------------
W - whole
H - half
Q - quarter
E - 8th
S - 16th
T - 32nd
X - 64th
. - note dotted
|-n-|  - n-tuplets

Tablature Legend
----------------
L - tied note
x - dead note
g - grace note
(n) - ghost note
> - accentuded note
NH - natural harmonic
AH - artificial harmonic
TH - tapped harmonic
SH - semi harmonic
PH - pitch harmonic
h - hammer on
p - pull off
b - bend
br - bendRelease
pb - preBend
pbr - preBendRelease
brb - bendReleaseBend
\n/ - tremolo bar dip
\n - tremolo bar dive
-/n - tremolo bar Release up
/n\ - tremolo bar inverted dip
/n - tremolo bar return
-\n - tremolo bar Release down
S - shift slide
s - legato slide
/ -  slide into from below or out of upwards
\ -  slide into from above or out of downwards
~ - vibrato
W - wide vibrato
tr - trill
TP - tremolo picking
T - tapping
S - slap
P - pop
< - fade in
^ - brush up
v - brush down


Share "Blockbusters Theme" by Misc Television


TOP 10 TABS

FRESH NEW TABS

ALL ARTISTS
artist wiki

mp3bear.com
song lyrics / contact us / privacy policy / tabspace toolbar
Copyright 2004 - 2014 TabSpace.com - All Rights Reserved.
song: blockbusters theme guitar tabs by misc television

0.017