:: Guitar & Bass Tabs Make Home Page
A B C D E F G H I J K L M N O P Q R S T U V W X Y Z #

  for    

On TABSPACE
Info About This Tab
Artist: Margot And The Nuclear So And Sos
Tab Type: Guitar
Rate This Tab!
Band : Margot And The Nuclear So And So's
Song : Bookworm
Album: The Dust Of Retreat
Tabbed By: Calum (afirock74@hotmail.com)

Capo 1

x   - Palm Mute
b   - Bend
b~  - Bend Up Then Down
h   - Hammer-On Directly After Note Before
p   - Pull Off

Intro/Verse Guitar 1:
e|---2p0----2p0--0-2p0--0-4p0--|
B|---------------0------0------|
G|-1------1------2------2------|
D|-2------2------2------2------|
A|-2------0------0------0------|
E|-0------2--------------------|

Riff
e|---------------------|
B|-----5----5---5------|
G|--4h6-6p4-4---4--4---|
D|--------------7--2---|
A|---------------------|
E|---------------------|

Pre-Chorus
e|-2-2----0-0----2-2----0-0-------|
B|-2-2----2-2----2-2----2-2--4-4--|
G|-2-2----2-2----2-2----2-2--4-4--|
D|-4-4----2-2----4-4----2-2--4-4--|
A|-4-4----0-0----4-4----0-0--2-2--|
E|-2-2-----------2-2--------------|


Riff 2
e|---------------------------------|
B|-9-7-5-4-4-4h5----9-7-5-4--------|
G|---------------4----------2--4-1-| 
D|---------------------------------|
A|---------------------------------|
E|---------------------------------|



Share "Bookworm" by Margot And The Nuclear So And Sos


TOP 10 TABS

FRESH NEW TABS

ALL ARTISTS
artist wiki

mp3bear.com
song lyrics / contact us / privacy policy / tabspace toolbar
Copyright 2004 - 2014 TabSpace.com - All Rights Reserved.
song: bookworm guitar tabs by margot and the nuclear so and sos

0.011