:: Guitar & Bass Tabs Make Home Page
A B C D E F G H I J K L M N O P Q R S T U V W X Y Z #

  for    

On TABSPACE
Info About This Tab
Artist: Misc Television
Tab Type: Guitar
Rate This Tab!
^=Bend
˝=Vibrato
x=Mute
h=Hammer on


e|---------------------------------------------------------------------|
B|---------------------------------------------------------------------|
G|----------------------------15--11-----------------------------------|
D|--^8--5---5-5---5--^8--------------^8--5---5-5---5-------5-----------|
A|----------7-----7------------------------------7-----7-----5h7-------|
E|---------------------------------------------------------------------|

e|--------------------------------------------------------------------------|
B|--------------------------------------------------------------------------|
G|--------------------------------------------------------------------------|
D|--^8--5---5-5---5--^8--------5-8-5---^8--5---5-5---7-^8-------5-----------|
A|----------7-----7-----------5h7------------------7-----7--------5h7-------|
E|--------------------------------------------------------------------------|

e|-------------------------------------------------------------------------|
B|-------------------------------------------------------------------------|
G|-------------------------------------------------------------------------|
D|---13--15--^10h8-6-8--------^8--5---5-5---5--------5---10----------------|
A|-------------------------------------------7------7-----5h7--------------|
E|-------------------------------------------------------------------------|


Share "Boston Legal Theme" by Misc Television


TOP 10 TABS

FRESH NEW TABS

ALL ARTISTS
artist wiki

mp3bear.com
song lyrics / contact us / privacy policy / tabspace toolbar
Copyright 2004 - 2014 TabSpace.com - All Rights Reserved.
song: boston legal theme guitar tabs by misc television

0.01