:: Guitar & Bass Tabs Make Home Page
A B C D E F G H I J K L M N O P Q R S T U V W X Y Z #

  for    

On TABSPACE
Info About This Tab
Artist: Evanescence
Tab Type: Bass
Rate This Tab!
Artist: Evanescence
Song: Bring me to life
Tuning: 4-string Drop D minus 1 step [C G C F]
Tabbed by: xfan2003

I'm not sure if this is all right, but this is
how i think it is played. Email me for comments,
questions, corrections and requests at xfan2003@hotmail.com.

Intro:
F|-W-|--------------------|
C|-A-|--------------------|
G|-I-|--------------------|
C|-T-|-XXXXX---XXXXX--XXXX|
       ^       ^       ^
Tap string w/ your finger for rumbling effect.

Verse 1:
F|-----------------------------------------|
C|*---------------------------------------*|
G|*---------------------------------------*|
C|-0-00-00--00-00-22-0-0-00-00-00-22-00-00-|
   Played in rythm with guitar.
   Listen for the change to the verse.

Chorus:
F|----------------------|-B-R-E-A-K-----|
C|*--------------------*|On-2nd-verse-go|
G|*-9---12----7---9-\7-*|to-Bridge-pt-1-|
C|----------------------|-B-R-E-A-K-----|

Verse 2:
F|------------------|
C|------------------|
G|------------------|
C|-33-33-33-33--3-3-|
  Played in rythm with guitar.
  Listen for change to the verse.

Bridge pt.1 :

F|--------------------------|--------------|
C|*-------------------------|-------------*|
G|*-5----7------------------|-------------*|
C|------------33-33-33-33-33|-33-33--33-33-|
			   ^|^1st time only.
                           ^go to pt.2 on repeat.
Bridge pt.2 :

F|------------------|---------------|---------------|
C|*-----------------|---------------|--------------*|
G|*9-11-12-15-17-\0-|-/14-----14--\0|-/11----11-\0-*|
C|------------------|------13-------|------10-------|
		     ^The slides in this section
                      are slow.
Breakdown:

F|----------------|
C|*--------------*|
G|*--------------*|
C|-33-33-33-33-33-|
  Played in rythm with guitar.
  Go to final chorus

Final Chorus:

F|----------------------|----------------------|
C|----------------------|----------------------|
G|-9--12---7-------12\0-|-9---12----7---9---\7-|
C|----------------------|----------------------|

Ending:

F|-----------------------------------------------------|
C|-----------------------------------------------------|
G|5-5-5-5-5--7-7-7-7-7-----------------9-11-12-15-17\0-|
C|---------------------33-33-33-33-333-----------------|

F|-------------------------------|
C|-------------------------------|
G|5-5-5-5-5--7-7-7-7-7-/-9--OUT--|
C|-------------------------------|

That's it, just try to put the parts together.
Like I said it might not be right so Email me.
Later,


Share "Bring Me To Life" by Evanescence


TOP 10 TABS

FRESH NEW TABS

ALL ARTISTS
artist wiki

mp3bear.com
song lyrics / contact us / privacy policy / tabspace toolbar
Copyright 2004 - 2014 TabSpace.com - All Rights Reserved.
song: bring me to life bass tabs by evanescence

0.04