:: Guitar & Bass Tabs Make Home Page
A B C D E F G H I J K L M N O P Q R S T U V W X Y Z #

  for    

On TABSPACE
Info About This Tab
Artist: 30 Seconds To Mars
Tab Type: Bass
Rate This Tab!
Band- 30 Seconds To Mars
Song- Buddha For Mary

Drop D Tuning
~ = let ring
/ or \ = slide
> = bend

Intro/Prechorus
|------------------|      |---------------------|       
|------------------| (x3) |---------------------|
|------------------|      |------------777-88-10|  
|000-888-555-10-8-7|      |000-888-555----------|


Verse
|------------------------------------------------------------|
|------------------------------------------------------------|
|------------------------------------------------------------|
|000-888-555-7-000-888-555-7-000-888-555-10-8-7-000-888-555-7| (x2)

Prechorus
|------------------|      |---------------------|       
|------------------| (x3) |---------------------|
|------------------|      |------------777-88-10|  
|000-888-555-10-8-7|      |000-888-555----------|

Chorus
|------------------------------|-------------------|
|------------------------------|-------------------|
|listen for timing-------------|---8~~888-333------|
|8888888888888h10/55555555555p3|000----------555---|

repeat verse, prechorus, and chorus. play the chorus twice when you repeat

|long-break|

Bridge
|------------------------|       |-------------------|
|------------------------|       |-------------------|
|------------------------|       |------------6666666|
|000-888-555-101010101010|(x3)   |000-888-555--------|

|--------------------------------|
|--------------------------------|
|-------------8888-77------------|
|-000-888-555--------------------| (x3)

|------------------|
|------------------|
|------------------|
|-0--8--5--3-/10-7-|

Outro

D|-8-8-8-8-8-8-8-8-8-8-8-10\-5-5-5-5-5-5-5-5-5-5-5-3-|

D|-8-8-8-8-8-8-8-8-8-8-10h12-12-12-5-5-5-5-5-5-5-5-5-5-5/12-|

D|-8-8-8-8-8-8-8-8-8-8-8-8-8-8-10-10-10-10-10-10-10-10-10-10-10-10-10|

|-------------------|
|-------------------|
|---8~~888-333------|
|000----------555-0~|

|-------------------|
|-------------------|
|---8~~888-333------|
|000----------555-1~|



Share "Buddha For Mary" by 30 Seconds To Mars


TOP 10 TABS

FRESH NEW TABS

ALL ARTISTS
artist wiki

mp3bear.com
song lyrics / contact us / privacy policy / tabspace toolbar
Copyright 2004 - 2014 TabSpace.com - All Rights Reserved.
song: buddha for mary bass tabs by 30 seconds to mars

0.051