:: Guitar & Bass Tabs Make Home Page
A B C D E F G H I J K L M N O P Q R S T U V W X Y Z #

  for    

On TABSPACE
Info About This Tab
Artist: Misc Television
Tab Type: Guitar
Difficulty: novice
Rate This Tab!
Catchy song at the end of MTV's BullyBeatdown.

Key :Cm

part 1
|------------------------------------------|
|------------------------------------------|
|----------------------------------3-3-----|
|------3-5----5-3------------3-5-5-----5---|
|--3-6------------6-3----3-6---------------|
|------------------------------------------|

------------------------------------------|
------------------------------------------|
------------------------------------------|
------3-5----5-3--------------------------|
--3-6------------6-3----3-3--5-6-3-5-2-3--|
------------------------------------------|


Only know the first part well, soon update!! Hope you like it


Share "Bully Beatdown - Credits" by Misc Television


TOP 10 TABS

FRESH NEW TABS

ALL ARTISTS
artist wiki

mp3bear.com
song lyrics / contact us / privacy policy / tabspace toolbar
Copyright 2004 - 2014 TabSpace.com - All Rights Reserved.
song: bully beatdown - credits guitar tabs by misc television

0.051