:: Guitar & Bass Tabs Make Home Page
A B C D E F G H I J K L M N O P Q R S T U V W X Y Z #

  for    

On TABSPACE
Info About This Tab
Artist: Wickermoss
Tab Type: Bass
Rate This Tab!
-----------------------------------------------------------------------------
			     Buwan-Wickermoss
-----------------------------------------------------------------------------

Tabbed By : John S.Marin
e-mail: johnmarin007@yahoo.com 

Tuning:Standard

Intro:
         E                E/Eb
G|---------------------------------------------------|            ---
D|---------------------6-4-----------------6-4-------|
A|------s7777777777-7-------7-6666666666-6-----------|
E|---------------------------------------------------|
               C#m                  Bm                            2x
G|------------------------------------------------------------|
D|------6-4--------------------4-2------------1111--4444------|
A|---6-------7-4444444444-4-6------2222--4444-----------------|
E|------------------------------------------------------------|   ---

Verse:
         E                E/Eb
G|---------------------------------------------------|            ---
D|---------------------6-4-----------------6-4-------|
A|------s7777777777-7-------7-6666666666-6-----------|
E|---------------------------------------------------|
               C#m                  Bm                            2x
G|------------------------------------------------------------|
D|------6-4--------------------4-2------------1111--4444------|
A|---6-------7-4444444444-4-6------2222--4444-----------------|
E|------------------------------------------------------------|   ---

Refrain:
        A                B             A                 B             E
G|-------------------------------------------------------------------------|
D|----------14-12-11-----------------------14-12-11----------------9-------|
A|----12-12----------12-----9-7-6----12-12----------12------9-7-6------7~--|
E|-----------------------77-------5---------------------77-----------------|
        E       (sbayan nio n lngpoh ung knta....mdyo mai sbit dn 2)
G|---x9-9--9p7------------------------------------------------|
D|--------------9p7-------------------------------------------|
A|-------------------7p6--------------------------------------|
E|-----------------------7p5----------------------------------|

Verse:
         E                E/Eb
G|---------------------------------------------------|            ---
D|---------------------6-4-----------------6-4-------|
A|------s7777777777-7-------7-6666666666-6-----------|
E|---------------------------------------------------|
               C#m                  Bm                            2x
G|------------------------------------------------------------|
D|------6-4--------------------4-2------------1111--4444------|
A|---6-------7-4444444444-4-6------2222--4444-----------------|
E|------------------------------------------------------------|   ---

Refrain:
        A                B             A                 B             
G|-------------------------------------------------------------------------|
D|----------14-12-11-----------------------14-12-11----------------9-------|
A|----12-12----------12-----9-7-6----12-12----------12------9-7-6----------|
E|-----------------------77-------5---------------------77-----------------|
           E
G|----------------------|
D|----------------------|
A|---7777777777---------|
E|----------------------|

Chorus:
      E                F#m              G#m              A
G|--------------------------------------------------------------------------|
D|--------------------------------------------------------------------------|
A|---777777777777777--------------------------------------------------------|
E|--------------------222222222222222--4444444444444444-555555555555555-----|
      E                F#m
G|--------------------s11-11-11-11-11-11-11-11-11-11-11-11-11-11------------|
D|--------------------------------------------------------------------------|
A|---777777777777777--------------------------------------------------------|
E|--------------------------------------------------------------------------|
      G#m
G|--------------------------------------------------------------------------|
D|--------------------------------------------------------------------------|
A|--11-11-11-11-11-11-11-11-11-11-11-11-11-11-11----------------------------|
E|-----------------------------------------------12-12-12-12-12-12-12-12-12-|

Adlib:
         E                E/Eb
G|---------------------------------------------------|            ---
D|---------------------6-4-----------------6-4-------|
A|------s7777777777-7-------7-6666666666-6-----------|
E|---------------------------------------------------|
               C#m                  Bm                            2x
G|------------------------------------------------------------|
D|------6-4--------------------4-2------------1111--4444------|
A|---6-------7-4444444444-4-6------2222--4444-----------------|
E|------------------------------------------------------------|   ---
        A                B             A                 B             
G|-------------------------------------------------------------------------|
D|----------14-12-11-----------------------14-12-11----------------9-------|
A|----12-12----------12-----9-7-6----12-12----------12------9-7-6----------|
E|-----------------------77-------5---------------------77-----------------|
        A                B             A              
G|----------------------------------------------------------------------|
D|----------14-12-11-----------------------14-12-11---------------------|
A|----12-12----------12-----9-7-6----12-12----------12------9-7-6-------|
E|-----------------------77-------5---------------------77---------5----|
           E
G|----------------------|
D|----------------------|
A|---7777777777---------|
E|----------------------|

Verse:
         E                E/Eb
G|---------------------------------------------------|            ---
D|---------------------6-4-----------------6-4-------|
A|------s7777777777-7-------7-6666666666-6-----------|
E|---------------------------------------------------|
               C#m                  Bm                            2x
G|------------------------------------------------------------|
D|------6-4--------------------4-2------------1111--4444------|
A|---6-------7-4444444444-4-6------2222--4444-----------------|
E|------------------------------------------------------------|   ---

Refrain:
        A                B             A                 B             
G|-------------------------------------------------------------------------|
D|----------14-12-11-----------------------14-12-11----------------9-------|
A|----12-12----------12-----9-7-6----12-12----------12------9-7-6----------|
E|-----------------------77-------5---------------------77-----------------|
           E
G|----------------------|
D|----------------------|
A|---7777777777---------|
E|----------------------|

Outro:
         E                E/Eb
G|---------------------------------------------------|            ---
D|---------------------6-4-----------------6-4-------|
A|------s7777777777-7-------7-6666666666-6-----------|
E|---------------------------------------------------|
               C#m                  Bm                            4x
G|------------------------------------------------------------|
D|------6-4--------------------4-2----------------------------|
A|---6-------7-4444444444-4-6------2222~----------------------|
E|------------------------------------------------------------|   ---

| s  slide
| p  pull-off
| ~  vibrato
| x  Mute note

un lng poh...pra poh mgetz nio ung tyming sbyan nio n lng poh ung knta...
hehe...helow poh s lht ng tga d.n.h.s. main...astig tau!!! 
lalu n ung porbi 06-07.....
helow din nga pla kai jane...ingat k prate god blezzz...
pti s lht ng mga kbnda q...SONATA....
ge...ayun lng....
mabuhay!!!!
(forany comments, suggestions,violent reactions...kindly txt...09102115581..)
=============================================================================


Share "Buwan" by Wickermoss


TOP 10 TABS

FRESH NEW TABS

ALL ARTISTS
artist wiki

mp3bear.com
song lyrics / contact us / privacy policy / tabspace toolbar
Copyright 2004 - 2014 TabSpace.com - All Rights Reserved.
song: buwan bass tabs by wickermoss

0.011