:: Guitar & Bass Tabs Make Home Page
A B C D E F G H I J K L M N O P Q R S T U V W X Y Z #

  for    

On TABSPACE
Info About This Tab
Artist: Wickermoss
Tab Type: Guitar
Difficulty: novice
Rate This Tab!
e|-0----0----0----0-----|
B|-0----0----0----0-----|
G|-7----7----6----4-----|
D|-7----7----6----4-----|
A|-9----8----4----2-----|
E|----------------------|
tapos pasok ng base.. kasabay to..
e|----------------------------------------9-9-9-|
B|-------------12-12-12-12~--10-9-12-10-9--9-9--|
G|--9-9-9-9---9--9--9--9------------------------|
D|-9-9-9-9--------------------------------------|
A|----------------------------------------------|
E|----------------------------------------------|

pero to paulit ulit lang to e.. maririnig mo yan kahit sa verse na..

intro Lang hehe.. kung meron kayo adLib penge..
ung sa base naman sa verse lang alam ko..
hehe..


Share "Buwan Intro" by Wickermoss


TOP 10 TABS

FRESH NEW TABS

ALL ARTISTS
artist wiki

mp3bear.com
song lyrics / contact us / privacy policy / tabspace toolbar
Copyright 2004 - 2014 TabSpace.com - All Rights Reserved.
song: buwan intro guitar tabs by wickermoss

0.002