:: Guitar & Bass Tabs Make Home Page
A B C D E F G H I J K L M N O P Q R S T U V W X Y Z #

  for    

On TABSPACE
Info About This Tab
Artist: Evanescence
Tab Type: Guitar
Rate This Tab!
I don't have rhythms (I can never spell that word right) because I haven't listened to 
that much.  But you can figure them out on your own!  You're smart kids!

************************************************

[I've edited this tab with the right tapping riff.  It's perfect now, so don't argue.  
this song IS in drop D, not drop Db.  Use your ears.  It's the only song on the album 
in Drop D]

************************************************

Evanescnece - Call Me When You're Sober
The Open Door

Tabbed by Bristlehead.  bristlehead@gmail.com

Drop D


(Verse, Intro)

----------------------------------------------------|
----------------------------------------------------|
----------------------------------------------------|
--00022-17-0h2-16-0h2-14----00022-17-0h2-16-0h2-10--|
--00022---------------------00022-------------------|
--00022---------------------00022-------------------|
        +       +     +           +      +      +
----------------------------------------------------|
----------------------------------------------------|
----------------------------------------------------|
--00022-17-0h2-16-0h2-14----00022-17-0h2-16-0h2-12--|
--00022---------------------00022-------------------|
--00022---------------------00022-------------------|
        +       +     +           +      +      +

----------|
----------|
----------|
--0002----|
--0002----|
--0002----|


(Pre Chorus)

------------|
------------|
--5-xx-5--4-|
--5-xx-5--4-|
--3-xx-3--2-|
------------|

(Chorus)

----------------------------------|
----------------------------------|
-----5------------------5---------|
--2--5--2--1---5--1--5--5----5----|
--2--3--2--1---5--1--5--3----5----|
--2-----2--1---5--1--5-------5----|

(Verse)

(Pre Chorus)

(Chorus)

(No guitar for the first part of the bridge)


-----------------------------|
-----------------------------|
---------5------------5--4---|
--7---2--5--2--7---2--5--4---|
--7-0-2--3--2--7-0-2--3--2---|
--7-0-2-----2--7-0-2---------|

(Chorus)


Bristlehead


Share "Call Me When Youre Sober" by Evanescence


TOP 10 TABS

FRESH NEW TABS

ALL ARTISTS
artist wiki

mp3bear.com
song lyrics / contact us / privacy policy / tabspace toolbar
Copyright 2004 - 2014 TabSpace.com - All Rights Reserved.
song: call me when youre sober guitar tabs by evanescence

0.002