:: Guitar & Bass Tabs Make Home Page
A B C D E F G H I J K L M N O P Q R S T U V W X Y Z #

  for    

On TABSPACE
Info About This Tab
Artist: Panic At The Disco
Tab Type: Bass
Rate This Tab!
Tabbed by: Valerie L.
e-mail: iloled@yahoo.com

Tuning: Drop D

Intro: (0:12) 
G|--------------------------76----------------------------------|   
D|-------------------------------7547---------------------------|   
A|-02-22-2-22-222-555-55-5--------------------------------------|   
D|------------------------------------55-5-55-555-222222-5555---|x2 

Pre-Chorus: (0:37)
G|-----------------|
D|-----------------|
A|-----------------|
D|-0~-222222222222-|

Chorus:
G|---------------------------|    |-----|
D|---------------------------|    |-----|
A|--------000000-2222222222--|    |-----|
D|-555555--------------------| x2 |--0~-|

Break (1:00)
During the techno part you can play this. Just follow the beats of the song.
G|---------------------------------------------|
D|---------------------------------------------|
A|----22222222------------55555555-000000000-1-|
D|-0~-----------55555555-----------------------| x2

Chorus:
G|---------------------------|
D|---------------------------|
A|--------000000-2222222222--|
D|-555555--------------------| x2

G|----------------------------------------------------------------------|
D|----------------------------------------------------------------------|
A|------------------------------------------00-0-00-0-22222222-55555555-|
D|-55-5-55-5-44-4-44-22-2-200-000-55-5-55-5-----------------------------|

After Chorus: (2:03)
G|-----------------------------------------|
D|-----------------------------------------|
A|-2~-------2~-------------------------0~--|
D|----------------2~22-54-54-2~4-54-54-----| 

Chorus:
G|-------------------------------------------------|
D|-------------------------------------------------|
A|--------000000-2222222222--------000000----------|
D|-555555-------------------555555--------2222222--| 

G|----------------------------------------------------------------------|
D|----------------------------------------------------------------------|
A|------------------------------------------00-0-00-0-------------------|
D|-55-5-55-5-44-4-44-22-2-200-000-55-5-55-5------------22-2-22222222-5~-|


Hope you enjoyed this tab!!


Share "Camisado" by Panic At The Disco


TOP 10 TABS

FRESH NEW TABS

ALL ARTISTS
artist wiki

mp3bear.com
song lyrics / contact us / privacy policy / tabspace toolbar
Copyright 2004 - 2014 TabSpace.com - All Rights Reserved.
song: camisado bass tabs by panic at the disco

0.009