:: Guitar & Bass Tabs Make Home Page
A B C D E F G H I J K L M N O P Q R S T U V W X Y Z #

  for    

On TABSPACE
Info About This Tab
Artist: Paramita
Tab Type: Bass
Rate This Tab!
sabayan nyo lng ang kanta...
hehehe..madali lng 2..elo sa lahat ng incidental report!

intro:
|------------------------------------|
|-------7-----------5-----------3--3-|
|------------------------------------|
|------------------------------------|

|------------------------------------------|
|----7-----5---5--7--5----5----------------|
|-----------------------7--7575--353-------|
|-------------------------------------5-3--|

|------------------------------------|
|------------------------------------|
|------------------------------------| x2
|-111-----333-------555--555---------|

|---------------------------------|
|-------3-----5--------7----------|
|---------------------------------| x2
|--111----333-----555----555------|

verse 1:
|------------------------------------|
|------------------------------------|
|------------------------------------| x3
|-111-----333-------555--555---------|

|---------------------------------------------|
|---------------------------------------------|
|------------------------333---444-----121212-| 
|-111-----333-----555-------------------------|

chorus:
|---------------------------------------------|
|---------------------------------------------|
|---------------------5555---7777-------------| x2
|-111--333--555--555----------------555---555-|

verse2: 
|------------------------------------|
|------------------------------------|
|------------------------------------| x3
|-111-----333-------555--555---------|

|---------------------------------------------|
|---------------------------------------------|
|------------------------333---444-----121212-| 
|-111-----333-----555-------------------------|

repeat chorus

solo bass
|---------------------------------|
|-------3-----5--------7----------|
|---------------------------------| x3
|--111----333-----555----555------|

|------------------------------------------|
|-----3------5--5--7--5---5----------------|
|-----------------------7--7575--353-------|
|-111----333--------------------------5-3--|

chorus:
|---------------------------------------------|
|---------------------------------------------|
|---------------------5555---7777-------------| x2
|-111--333--555--555---------------555---555--|

|----------------------------|
|----------------------------|
|-------333---444-----121212-| 
|----------------------------|

|---------------------------------------------|
|---------------------------------------------|
|---------------------5555---7777-------------| x2
|-111--333--555--555---------------555---555--|

repeat verse 3x

e2 na tab hanggang matapos ang kanta
|---------------------------------|
|-------3-----5--------7----------|
|---------------------------------| 
|--111----333-----555----555------|

GOD BLESS SA PNLE THIS NOVEMBER... - incidental report







Share "Carousel" by Paramita


TOP 10 TABS

FRESH NEW TABS

ALL ARTISTS
artist wiki

mp3bear.com
song lyrics / contact us / privacy policy / tabspace toolbar
Copyright 2004 - 2014 TabSpace.com - All Rights Reserved.
song: carousel bass tabs by paramita

0.016