:: Guitar & Bass Tabs Make Home Page
A B C D E F G H I J K L M N O P Q R S T U V W X Y Z #

  for    

On TABSPACE
Info About This Tab
Artist: Misc Television
Tab Type: Guitar
Rate This Tab!
-------------------------------------------------------------------------------
			     Cash Cab Theme Song
-------------------------------------------------------------------------------
Tabbed by: jmo74
Email: jdm0423@gmail.com

Tuning: Standard

Strumming patterns may not be exact, but here it is.

Organ Intro

e|---------------------------------------------------------------------------|
B|-------7~----------------6~--------------4~--------------------------------|
G|-------6~----------------6~--------------4~--------------------------------|
D|-------6~----------------6~--------------4~--------------------------------|
A|---------------------------------------------------------------------------|
E|---------------------------------------------------------------------------|

Riff 1 (Play Once)

e|--------------------------------------------------------------5----5--X--X-|
B|---6--6--X--6--6--6--X----9----9--X--9----9--X--X-------------5----5--X--X-|
G|---6--6--X--6--6--6--X----9----9--X--9----9--X--X--6--6--X----6----6--X--X-|
D|---6--6--X--6--6--6--X----9----9--X--9----9--X--X--7--7--X----7----7--X--X-|
A|---4--4--X--4--4--4--X----7----7--X--7----7--X--X--7--7--X----7----7--X--X-|
E|---------------------------------------------------5--5--X----5----5--X--X-|

e|---5--5--X--7----7--X--X---------------------------------------------------|
B|---5--5--X--7----7--X--X---------------------------------------------------|
G|---6--6--X--8----8--X--X---------------------------------------------------|
D|---7--7--X--9----9--X--X---------------------------------------------------|
A|---7--7--X--9----9--X--X---------------------------------------------------|
E|---5--5--X--7----7--X--X---------------------------------------------------|

Riff 2 (Play Twice)

e|-----------------------5----5--X----7----7--X------------------------------|
B|--6--6--7--6--7--6--X--5----5--X----7----7--X------------------------------|
G|--6--6--6--6--6--6--X--6----6--X----8----8--X------------------------------|
D|--6--6--6--6--6--6--X--7----7--X----9----9--X------------------------------|
A|--4--4--4--4--4--4--X--7----7--X----9----9--X------------------------------|
E|-----------------------5----5--X----7----7--X------------------------------|

Another guitar plays this lick while the rhythm plays the Amaj and Bmaj in Riff 2.

e|---------------------------------------------------------------------------|
B|-----------------------5-----------4----------2----------------------------|
G|-----------------------7b9---------6b8--------4b6--------------------------|
D|---------------------------------------------------------------------------|
A|---------------------------------------------------------------------------|
E|---------------------------------------------------------------------------|

And as a bonus, here's the bass that plays during the RED LIGHT CHALLENGE!!!!

e|---------------------------------------------------------------------------|
B|---------------------------------------------------------------------------|
G|---------------------------------------------------------------------------|
D|---------4--6-----------------------4--5----------------------4--5--6--5---|
A|---4--7-----------------------4--7----------------------4--7---------------|
E|---------------------------------------------------------------------------|

e|---------------------------------------------------------------------------|
B|---------------------------------------------------------------------------|
G|---------------------------------------------------------------------------|
D|--4-----------4--5--6--5--4------------------------------------------------|
A|-----7--4--7-----------------7--4------------------------------------------|
E|---------------------------------------------------------------------------|

And end it like this...

e|---------------------------------------------------------------------------|
B|---------------------------------------------------------------------------|
G|---------------------------------------------------------------------------|
D|--------4--5--6--5--4------------------------------------------------------|
A|--4--7-----------------7--4--4--2--4\--------------------------------------|
E|---------------------------------------------------------------------------|


| /  slide up
| \  slide down
| h  hammer-on
| p  pull-off
| ~  vibrato
| +  harmonic
| x  Mute note
===============================================================================



Share "Cash Cab Theme" by Misc Television


TOP 10 TABS

FRESH NEW TABS

ALL ARTISTS
artist wiki

mp3bear.com
song lyrics / contact us / privacy policy / tabspace toolbar
Copyright 2004 - 2014 TabSpace.com - All Rights Reserved.
song: cash cab theme guitar tabs by misc television

0.007