:: Guitar & Bass Tabs Make Home Page
A B C D E F G H I J K L M N O P Q R S T U V W X Y Z #

  for    

On TABSPACE
Info About This Tab
Artist: Hard-fi
Tab Type: Guitar
Rate This Tab!
-------------------------------------------------------------------------------
			     SONG NAME: Cash Machine - Band Name: Hard-Fi
-------------------------------------------------------------------------------
Tabbed by: Jaded Timmah
Email: timsteadman8@hotmail.com


This is a great song on their brilliant debut album, Stars Of CCTV. I'm pretty
sure this is the correct tab and it sounds correct to me. It's pretty easy so have fun!


Tuning: Standard


Order of song:
Verse
Chorus
Verse
Chorus
Verse
Chorus


Intro (kinda):-

e|---------------------------------------------------------------------------|
B|----10\5-------------------------------------------------------------------|
G|---------------------------------------------------------------------------|
D|---------------------------------------------------------------------------|
A|---------------------------------------------------------------------------|
E|---------------------------------------------------------------------------|


Verse 1:-

e|--5------5--5-5-------7-----5--5-5--------------5------5--5-5-----------7------7--7-7----------|
B|--5------5--5-5-------7-----7--7-7--------------6------6--6-6-----------8------8--8-8----------|
G|--5------5--5-5-------7-----5--5-5--------------7------7--7-7-----------9------9--9-9----------|
D|--7------7--7-7-------5-----7--7-7--------------7------7--7-7-----------9------9--9-9-----X2---|
A|------------------------------------------------5------5--5-5-----------7------7--7-7----------|
E|-----------------------------------------------------------------------------------------------|
   

Am
Go to a cash machine
Am
To get a ticket home
Dm
Message on the screen
Em
Says don't make plans, you're broke
Am
No, no this can't be right
Am
I know that time is tight
Dm
I've only just been paid
Em
Three weeks five days, til I'm seen
Dm
Right...
Em
No...  
     
Chorus:-

e|--5----5-5-x-------5---5-5-x-----7---7-7-x------------------------------------------------|
B|--5----5-5-x-------6---6-6-x-----8---8-8-x------------------------------------------------|
G|--5----5-5-x(X2)---7---7-7-x-----9---9-9-x------------------------------------------------|
D|--7----7-7-x-------7---7-7-x-----9---9-9-x-------------X2---------------------------------|
A|-------------------5---5-5-x-----7---7-7-x------------------------------------------------|
E|------------------------------------------------------------------------------------------|

Am
I scratch a living, it ain't easy
Am
You know it's a drag
Dm
I'm always paying, never making
Em
But you can't look back
Am
I wonder if I'll ever get
Am
To where I want to be
Dm
Better believe it
Em
I'm working for the cash machine



| /  slide up
| \  slide down
| h  hammer-on
| p  pull-off
| ~  vibrato
| +  harmonic
| x  Mute note
===============================================================================


Share "Cash Machine" by Hard-fi


TOP 10 TABS

FRESH NEW TABS

ALL ARTISTS
artist wiki

mp3bear.com
song lyrics / contact us / privacy policy / tabspace toolbar
Copyright 2004 - 2014 TabSpace.com - All Rights Reserved.
song: cash machine guitar tabs by hard-fi

0.013