:: Guitar & Bass Tabs Make Home Page
A B C D E F G H I J K L M N O P Q R S T U V W X Y Z #

  for    

On TABSPACE
Info About This Tab
Artist: Idlewild
Tab Type: Guitar
Difficulty: novice
Rate This Tab!
iDLEWiLD
Chandelier

Guitar tuned down a step (D, G, C, F, A, D)

Intro Riff
D------------------------------------------------------------------------------------------|
A------------------------------------------------------------------------------------------|
F--11/12-x--------------11/12-x--------------11/12-x---------------------------------------|
C--11/12-x-12--12-12-12-11/12-x-12--12-12-12-11/12-x-12--12-12-12-12-12-12-12-12-12-12-12--|
G---9/10-x-12--12-12-12--9/10-x-12--12-12-12--9/10-x-12--12-12-12-12-12-12-12-12-12-12-12--|
D----------10--10-10-10---------10--10-10-10---------10--10-10-10-10-10-10-10-10-10-10-10--|

Verse Riff
You gotta put on a...
D------------------------------------------------------------------------------------|
A------------------------------------------------------------------------------------|
F--11/12-x--------------11/12-x--------------11/12-x---------------14--12-12--11-11--|
C--11/12-x-12--12-12-12-11/12-x-12--12-12-12-11/12-x-12--12-12-12--------------------|
G---9/10-x-12--12-12-12--9/10-x-12--12-12-12--9/10-x-12--12-12-12--12--10-10--9--9---|
D----------10--10-10-10---------10--10-10-10---------10--10-10-10--------------------|Play x 4

Chorus Riff (Guitar 1)
I'm sitting on a chandelier...
D-----------------------------------------------------------|
A-----------------------------------------------------------|
F------------------------------7--7--7-7-7-7-7--7--7-7-7-7--|
C--9--9--9-9-9-9-7--7--7-7-7-7-7--7--7-7-7-7-7--7--7-7-7-7--|
G--9--9--9-9-9-9-7--7--7-7-7-7-5--5--5-5-5-5-5--5--5-5-5-5--|
D--7--7--7-7-7-7-5--5--5-5-5-5------------------------------| Play x 4

Chorus Riff (Guitar 2)
D----------------------------------------------------------------|
A----------------------------------------------------------------|
F--11--11--11-11-11-11-11/12--11-9--7--7--7-7-7-7-7--7--7-7-7-7--|
C----------------------------------------------------------------|
G--9---9---9--9--9--9---9/10--9--7--5--5--5-5-5-5-5--5--5-5-5-5--|
D----------------------------------------------------------------| Play x 4

Then play Verse Riff x 4
Then play Chorus Riff (G1 + G2) x 4

Break Riff A
D-------------------|
A-------------------|
F--7-x-----------x--|
C--7-x-7--7--7-7-x--|
G--5-x-7--7--7-7-x--|
D------5--5--5-5----| Play x 8

Break Riff B
D---------------------------------------------------------------------|
A---------------------------------------------------------------------|
F-11-x-12--12-12-x-14-x-6--6-6-6--11-x-12--12-12-12-9-x-11--11-11-11--|
C----x-----------x------------------------------------x---------------|
G-9--x-10--10-10-x-12-x-4--4-4-4--9--x-10--10-10-10-7-x-9---9--9--9---|
D---------------------------------------------------------------------| Play x 2

Then play Verse Riff x 4
Then play Chorus Riff (G1 + G2) x 4
Then play Break Riff A x 8
Then play Break Riff B x 2
Then play Break Riff A x 8
End on:
F--7~--|
C--7~--|
G--5~--|





Share "Chandelier" by Idlewild


TOP 10 TABS

FRESH NEW TABS

ALL ARTISTS
artist wiki

mp3bear.com
song lyrics / contact us / privacy policy / tabspace toolbar
Copyright 2004 - 2014 TabSpace.com - All Rights Reserved.
song: chandelier guitar tabs by idlewild

0.015