:: Guitar & Bass Tabs Make Home Page
A B C D E F G H I J K L M N O P Q R S T U V W X Y Z #

  for    

On TABSPACE
Info About This Tab
Artist: Panda
Tab Type: Guitar
Difficulty: novice
Rate This Tab!
intro
Gtr 1
e|-9-8-6---------------9-8-6--------------9-8-6---------------------------------|
b|-------9-7-6-7-6-----------9-7-6-7-6----------9-7-6-7-6-----6---6-------------|
g|-----------------8-6-----------------8------------------8-6---8---8-6---8---6-| 
d|------------------------------------------------------------------------------|
a|------------------------------------------------------------------------------|
d|------------------------------------------------------------------------------|
Gtr 2
e|-------------| |---------------------|
b|-------------| |---------------------|
g|-6-----------| |-6666-8888-----------|x3 
d|-6-4444-6666-| |-6666-8888-4444-6666-|
a|-4-4444-6666-| |-4444-6666-4444-6666-|
d|---2222-4444-| |-----------2222-4444-|

claro ke no no puede ser...
Gtr 1                                 Gtr 2 
e|---------------------------------| |----------|
b|---------------------------------| |----------|
g|-6xxxxxx-8xxxxxx-----------------| |----------|
d|-6xxxxxx-8xxxxxx-4xxxxxx-6xxxxxx-| |----------|
a|-4xxxxxx-6xxxxxx-4xxxxxx-6xxxxxx-| |-4-6-4----|
d|-----------------2xxxxxx-4xxxxxx-| |-------7--|

 Tu no le creas a ese wey...
 Gtr 1                      Gtr 2                      
e|---------------------| |---------------------|   
b|---------------------| |---------------------|   
g|-6666----------------| |-6666-8888-----------|    
d|-6666-8888-4444-6666-| |-6666-8888-4444-6666-|    
a|-4444-8888-4444-6666-| |-4444-6666-4444-6666-|    
d|------6666-2222-4444-| |-----------2222-4444-|    

El te mintio...
 Gtr 1
e|-------4------------4------------4------------4-----|
b|----------------------------------------------------|
g|-----6---6--------6---6--------6---6--------6---6---| 
d|---6-------6----6-------6----6-------6----6-------6-|
a|-4------------4------------4------------4-----------|
d|----------------------------------------------------|
 Gtr 2
e|-----------------------------------------------------------------------------|
b|-----------------------------------------------------------------------------|
g|-66666666--------------------------------------------------------------------| 
d|-66666666-66666666-8888-4444-88888888-4444-6666-88888888-4444-6666-8888--4-6-|
a|-44444444-66666666-8888-4444-88888888-4444-6666-88888888-4444-6666-8888--4-6-|
d|----------44444444-6666-2222-66666666-2222-4444-66666666-2222-4444-6666--2-4-|
 
 coro
Gtr 1                      Gtr 2                      
e|----------------------| |----------------------|   
b|----------------------| |----------------------|   
g|-6666-----------------| |-6666-8888------------|    
d|-6666-8888-4444-6-6-6-| |-6666-8888-4444-6-6-6-|    
a|-4444-8888-4444-6-6-6-| |-4444-6666-4444-6-6-6-|    
d|------6666-2222-4-4-4-| |-----------2222-4-4-4-|  

Gtr 1
e|-9-8-6---------------9-8-6--------------9-8-6---------------------------------|
b|-------9-7-6-7-6-----------9-7-6-7-6----------9-7-6-7-6-----6---6-------------|
g|-----------------8-6-----------------8------------------8-6---8---8-6---8---6-| 
d|------------------------------------------------------------------------------|
a|------------------------------------------------------------------------------|
d|------------------------------------------------------------------------------|
Gtr 2
e|---------------------|
b|---------------------|
g|-6666-8888-----------|x4 
d|-6666-8888-4444-6666-|
a|-4444-6666-4444-6666-|
d|-----------2222-4444-|
 
 Te dijo cosas ke no son verdad...
Gtr 1                                 Gtr 2 
e|---------------------------------| |----------|
b|---------------------------------| |----------|
g|-6xxxxxx-8xxxxxx-----------------| |----------|
d|-6xxxxxx-8xxxxxx-4xxxxxx-6xxxxxx-| |----------|
a|-4xxxxxx-6xxxxxx-4xxxxxx-6xxxxxx-| |-4-6-4----|
d|-----------------2xxxxxx-4xxxxxx-| |-------7--|

El te mintio...
 Gtr 1
e|-------4------------4------------4------------4-----|
b|----------------------------------------------------|
g|-----6---6--------6---6--------6---6--------6---6---| 
d|---6-------6----6-------6----6-------6----6-------6-|
a|-4------------4------------4------------4-----------|
d|----------------------------------------------------|
 Gtr 2
e|------------------------------------------------------------------------|
b|------------------------------------------------------------------------|
g|-66666666---------------------------------------------------------------| 
d|-66666666-66666666-8888-4444-88888888-4444-6666-88888888-4444-6666-8888-|
a|-44444444-66666666-8888-4444-88888888-4444-6666-88888888-4444-6666-8888-|
d|----------44444444-6666-2222-66666666-2222-4444-66666666-2222-4444-6666-|


 Terminando tocan esto
e|-----------------|
b|-----------------|
g|---------------6-| 
d|-3-------------6-|
a|---6-4---4-----4-|
d|-------6---4-----|
pm . . . . . . 

coro

coro
Gtr 1                      Gtr 2                      
e|----------------------| |----------------------|   
b|----------------------| |----------------------|   
g|-6666-----------------| |-6666-8888------------|    
d|-6666-8888-4444-6-6-6-| |-6666-8888-4444-6-6-6-|    
a|-4444-8888-4444-6-6-6-| |-4444-6666-4444-6-6-6-|    
d|------6666-2222-4-4-4-| |-----------2222-4-4-4-|  

 outro
 Gtr 1
e|-------------------9-6-9-------------|
b|-9---7-5--9-7-5-----------9--7--5--7-|
g|-------------------------------------| se repite... 
d|-------------------------------------|
a|-------------------------------------|
d|-------------------------------------|

e|---------------------------------|
b|---------------------------------|
g|--------------6-----6------------| 
d|-8---6-8--6---6--8--6-6-4--66-66-|
a|-8---6-8--6---4--8--4-6-4--66-66-|
d|-6---4-6--4------6----4-2--44-44-|

 Eso es todo muy facil me costo un poco sacar esta rola pero ya esta 100% correcta
 si kieren saber mas rolas de panda metanse a www.pandapunk.cjb.net 
 ahi estan las mejores tabs hagan clic en el link ke dice tabs de gabriel 
 estan correctas.  jajaja atte: "The Original Punkater" (gabriel flores)
 y ARRIBA EL PUNK.



Share "Claro Que No" by Panda


TOP 10 TABS

FRESH NEW TABS

ALL ARTISTS
artist wiki

mp3bear.com
song lyrics / contact us / privacy policy / tabspace toolbar
Copyright 2004 - 2014 TabSpace.com - All Rights Reserved.
song: claro que no guitar tabs by panda

0.027