:: Guitar & Bass Tabs Make Home Page
A B C D E F G H I J K L M N O P Q R S T U V W X Y Z #

  for    

On TABSPACE
Info About This Tab
Artist: 65daysofstatic
Tab Type: Guitar
Difficulty: novice
Rate This Tab!
-------------------------------------------------------------------------------
	     Climbing On Roofs (Desperate Edit) - 65daysofstatic
-------------------------------------------------------------------------------
This is just a quick tab for a simple song, but its fun to play.
Tabbed by: Tim West
Email: tim17west@hotmail.com

Tuning: Standard

Intro:
0:20 
e|-------------------------------------------------------------------------------|
B|-------------------------------------------------------------------------------|
G|-------------------9~7~----------------------------------------------------9~7~|
D|-10-9-7--10-9-7--5~------10-9-7--10-9-7--10-9-7--10-9-7--10-9-7--10-9-7--5~----|
A|-------------------------------------------------------------------------------|
E|-------------------------------------------------------------------------------|

Main Part:
0:56 Repeated X2
e|---------------------------------------------------------------------------|
B|---------------------------------------------------------------------------|
G|---------------------------------------------------------------------------|
D|-14--12-10-9-5---14--12-10-9-5-4-------------------------------------------|
A|---------------------------------------------------------------------------|
E|-12--10-8--7-3---12--10-8--7-3-2-------------------------------------------|

1:08 
e|----------------------------------------------------------------------------|
B|----------------------------------------------------------------------------|
G|------------------------------------12-12-14-16-11-17-16--12-14-16-11-17-16-|
D|-14--12-10-9-5---14--12-10-9-5-7-4------------------------------------------|
A|------------------------------------10-10-12-14-9-/15-14--10-12-14-9-/15-14-|
E|-12--10-8--7-3---12--10-8--7-3-5-2------------------------------------------|

1:19 Repeated X2
e|---------------------------------------------------------------------------|
B|---------------------------------------------------------------------------|
G|---------------------------------------------------------------------------|
D|-14--12-10-9-5---14--12-10-9-5-4-------------------------------------------|
A|---------------------------------------------------------------------------|
E|-12--10-8--7-3---12--10-8--7-3-2-------------------------------------------|

1:32
e|----------------------------------------------------------------------------|
B|----------------------------------------------------------------------------|
G|--------------------------------------/12-14-16-11-17-16--12-14-16-11-17-16-|
D|-14--12-10-9-5---14--12-10-9-5-7-4--5---------------------------------------|
A|--------------------------------------/10-12-14-9-/15-14--10-12-14-9-/15-14-|
E|-12--10-8--7-3---12--10-8--7-3-5-2--3---------------------------------------|

Outro Repeat X3
1:44 (Listen to the bass)
e|---------------------------------------------------------------------------|
B|---------------------------------------------------------------------------|
G|---------------------------------------------------------------------------|
D|------------7777-----------------------------7777--------------------------|
A|---------------------------------------------------------------------------|
E|-5-5--5--5--------5-5-------------5-5--5--5--------5-5---------------------|

Thats it, its pretty easy

| /  slide up
| \  slide down
| h  hammer-on
| p  pull-off
| ~  vibrato
| +  harmonic
| x  Mute note
===============================================================================


Share "Climbing On Roofs Desperate Edit" by 65daysofstatic


TOP 10 TABS

FRESH NEW TABS

ALL ARTISTS
artist wiki

mp3bear.com
song lyrics / contact us / privacy policy / tabspace toolbar
Copyright 2004 - 2014 TabSpace.com - All Rights Reserved.
song: climbing on roofs desperate edit guitar tabs by 65daysofstatic

0.016