:: Guitar & Bass Tabs Make Home Page
A B C D E F G H I J K L M N O P Q R S T U V W X Y Z #

  for    

On TABSPACE
Info About This Tab
Artist: Evanescence
Tab Type: Bass
Difficulty: intermediate
Tuning: Drop D
Rate This Tab!


Verse 1: "...I'm Not afraid to"
Gb|------------------------------------------------|
Db|------------------------------------------------|
Ab|------------------------------------------------|
Db|-0h2-0h2--0h2-0h2p0----0h2-0h2--0h2-0h2p0-2222--|

(Guitar Comes In)
Gb|------------------------------------------------|
Db|------------------------------------------------|
Ab|------------------------------------------------|
Db|-0h2-0h2--0h2-0h2p0----0h2-0h2--0h2-0h2p0-2222--|

Gb|------------------------------------------------|
Db|------------------------------------------------|
Ab|------------------------------------------------|
Db|-0h2-0h2--0h2-0h2p0-----------------------------|

Gb|------------------------------------------------|
Db|------------------------------------------------|
Ab|------------------------------------------------|x2
Db|-0h2-0h2--0h2-0h2p0----0h2-0h2--0h2-0h2p0-2222--|

Pre-chorus:

Note: Bass follows guitar two not the lead part
Gb|-------------|
Db|-------------|
Ab|-------------|
Db|--2-4-5-9-7--|

Gb|------------------------------------------------------------------------|
Db|------------------------------------------------------------------------|
Ab|----------------------------------22222222222222222222222222222222------|
Db|--55555555555544441111111111111111--------------------------------------|

Chorus:
Gb|-------------------------------------------------------------------|
Db|-------------------------------------------------------------------|
Ab|--33333333333333333----------------3333333333333333----------------|
Db|-------------------2222222222222222----------------2222222222222222|

Gb|-------------------------------------------------------------------|
Db|-------------------------------------------------------------------|
Ab|--00000000000000000----------------2222222222222222-2~-------------|
Db|-------------------2222222222222222--------------------------------|

Pre-Verse:
Gb|------------------------------------------------|
Db|------------------------------------------------|
Ab|------------------------------------------------|
Db|-0h2-0h2--0h2-0h2p0----0h2-0h2--0h2-0h2p0-2222--|

Verse: "If You Wanna Go..."
Gb|------------------------------------------------|
Db|------------------------------------------------|
Ab|------------------------------------------------|x3
Db|-0h2-0h2--0h2-0h2p0----0h2-0h2--0h2-0h2p0-2222--|

Pre-chorus:
Gb|-------------|
Db|-------------|
Ab|-------------|
Db|--2-4-5-9-7--|

Gb|------------------------------------------------------------------------|
Db|------------------------------------------------------------------------|
Ab|----------------------------------22222222222222222222222222222222------|
Db|--55555555555544441111111111111111--------------------------------------|

Chorus:
Gb|---------------------------------------------------------------------|
Db|---------------------------------------------------------------------|
Ab|--33333333333333333----------------3333333333333333------------------|
Db|-------------------2222222222222222----------------2222222222222222--|

Gb|---------------------------------------------------------------------|
Db|---------------------------------------------------------------------|
Ab|--00000000000000000----------------22222222222222222222222222222222--|
Db|-------------------2222222222222222----------------------------------|

Gb|---------------------------------------------------------------------|
Db|---------------------------------------------------------------------|
Ab|--33333333333333333----------------3333333333333333------------------|
Db|-------------------2222222222222222----------------2222222222222222--|

Gb|---------------------------------------------------------------------|
Db|---------------------------------------------------------------------|
Ab|---------------------------------------------------------------------|
Db|--0000000000000000055555555555555552~--------------------------------|

Bridge:
Gb|---------------------------------------------------------------------|
Db|---------------------------------------------------------------------|
Ab|---------------------------------------------------------------------|x2
Db|----5p2p0h2--5p2p0h2----5p2p0h2--5p2p0h2---4-5--7-5-4~-4-5--7-5-4~---|

Gb|---------------------------------------------------------------------|
Db|---------------------------------------------------------------------|
Ab|--0000000000000000---------------------------------------------------|
Db|------------------22222222222222225555555555555555999999999999999----|

Chorus:
Gb|---------------------------------------------------------------------|
Db|---------------------------------------------------------------------|
Ab|--33333333333333333----------------3333333333333333------------------|
Db|-------------------2222222222222222----------------2222222222222222--|

Gb|---------------------------------------------------------------------|
Db|---------------------------------------------------------------------|
Ab|--00000000000000000----------------22222222222222222222222222222222--|
Db|-------------------2222222222222222----------------------------------|

Gb|---------------------------------------------------------------------|
Db|---------------------------------------------------------------------|
Ab|--33333333333333333----------------3333333333333333------------------|
Db|-------------------2222222222222222----------------2222222222222222--|

Gb|---------------------------------------------------------------------|
Db|---------------------------------------------------------------------|
Ab|----------------------------------------------------2~---------------|
Db|--00000000000000000555555555555555522222222222222222-----------------|

Outro:
Chorus:
Gb|---------------------------------------------------------------------|
Db|---------------------------------------------------------------------|
Ab|--33333333333333333----------------3333333333333333------------------|
Db|-------------------2222222222222222----------------2222222222222222--|

Gb|---------------------------------------------------------------------|
Db|---------------------------------------------------------------------|
Ab|--00000000000000000----------------22222222222222222222222222222222--|
Db|-------------------2222222222222222----------------------------------|

Gb|---------------------------------------------------------------------|
Db|---------------------------------------------------------------------|
Ab|--33333333333333333----------------3333333333333333------------------|
Db|-------------------2222222222222222----------------2222222222222222--|


Outro:
Gb|------------------------------------------------|
Db|------------------------------------------------|
Ab|------------------------------------------------|x2
Db|-0h2-0h2--0h2-0h2p0----0h2-0h2--0h2-0h2p0-2222--|

Enjoy!













Share "Cloud Nine" by Evanescence


TOP 10 TABS

FRESH NEW TABS

ALL ARTISTS
artist wiki

mp3bear.com
song lyrics / contact us / privacy policy / tabspace toolbar
Copyright 2004 - 2014 TabSpace.com - All Rights Reserved.
song: cloud nine bass tabs by evanescence

0.008